Himno Barcelona

Himnos de futbol

Acordes

Subida por Yufaggsarcof


Más Versiones
Ver. 2 Ver. 3 Ver. 4

Cambiar Cifrado
Americano Latino

Cambiar Tonalidad
-1 +1

Partir Pantalla Imprimir FAQ

+A
-A
Himno barça [para dos guitarras]

____________________
| x2 |

|---0--3-8-----------|---0--3-8-10-8-7---|---5--7-8--7-5-3---|
|--------------------|-------------------|-------------------|
|--------------------|-------------------|-------------------|
|--------------------|-------------------|-------------------|
|--------------------|-------------------|-------------------|
|--------------------|-------------------|-------------------|
| | | |
|--------------------|-------------------|-------------------|
|--------------------|-------------------|-------------------|
|--------------------|-------------------|-------------------|
|--------------------|-------------------|-------------------|
|--------------------|-------------------|-------------------|
|------------0-0-0---|-------------------|-------------------|

|-------------------|-------------------------|---8--7-5-3---3-7-5---3---|
|-------------------|-------------------------|------------5-------------|
|-------------------|-------------------------|--------------------------|
|-------------------|-------------------------|--------------------------|
|-------------------|-------------------------|--------------------------|
|-------------------|-------------------------|--------------------------|
| | | |
|---1--3-5--3-1-0---|--------0--1--3-1-3-5-7--|---8--7-5-3---3-7-5---3---|
|-------------------|---5--5------------------|------------5-------------|
|-------------------|-------------------------|--------------------------|
|-------------------|-------------------------|--------------------------|
|-------------------|-------------------------|--------------------------|
|-------------------|-------------------------|--------------------------|


ESTRIBILLO:

|---3---8--7-5---|---5---10--8-7---|---8---7--5-3-0-3-8-12---|
|----------------|-----------------|-------------------------|
|----------------|-----------------|-------------------------|
|----------------|-----------------|-------------------------|
|----------------|-----------------|-------------------------|
|----------------|-----------------|-------------------------|
| | | |
|---3---8--7-5---|---5---10--8-7---|---8---7--5-3-0-3-8-12---|
|----------------|-----------------|-------------------------|
|----------------|-----------------|-------------------------|
|----------------|-----------------|-------------------------|
|----------------|-----------------|-------------------------|
|----------------|-----------------|-------------------------|


GRITO "BARÇA!":

|---0-0---0-0---0-------|
|---0-0---0-0---0-------|
|---0-0---0-0---0-------|
|---0-0---0-0---0-------|
|---0-0---0-0---0-------|
|---0-0---0-0---0---0---|
| |
|---0-0---0-0---0-------|
|---0-0---0-0---0-------|
|---0-0---0-0---0-------|
|---0-0---0-0---0-------|
|---0-0---0-0---0-------|
|---0-0---0-0---0---0---|


NUEVO FORO DE MÚSICA

¿Tienes alguna duda, consulta, pregunta, consejo o algo para compartir sobre esta canción?

¡Puedes abrir un hilo en el FORO para que la comunidad te ayude! Hacer una pregunta

ACORDES PARA GUITARRA

PIANO UKELELE


Las más tocadas de Himnos de futbol