Newell´s - tu peor humillación (Acordes)

Himnos de futbol

Subida por Abelio

Compartir


Cambiar Cifrado
Americano Latino

Cambiar Tonalidad
-1 +1
Imprimir FAQ
+A
-A

Texto

Desplazamiento

Transportador

Color de Fondo

Archivos

-A
+A
Tu Peor Humillación

e||------7-9-9-12-10-9-7-----9------|------7-9-9-12-10-9-7----14-10-----||
B||---10------------------10---10---|---10-----------------10-------12--||
G||-9-----------------------------9-|-9---------------------------------||
D||---------------------------------|-----------------------------------||
A||---------------------------------|-----------------------------------||
E||---------------------------------|-----------------------------------||

e||-------9-10-10-14-12-10-9--7-10-9--|-12-10-9-7---9-7---10-9-7----------||
B||----12-----------------------------|-----------10-------------10-9-10--||
G||-11--------------------------------|-----------------------------------||
D||-----------------------------------|-----------------------------------||
A||-----------------------------------|-----------------------------------||
E||-----------------------------------|-----------------------------------||

e||-------9-10-10-14-12-10-9--7-10-9--|-12-10-9-7---9-7---10-9-7----------||
B||----12-----------------------------|-----------10-------------10-9-10--||
G||-11--------------------------------|-----------------------------------||
D||-----------------------------------|-----------------------------------||
A||-----------------------------------|-----------------------------------||
E||-----------------------------------|-----------------------------------||
(ESTE VERSO LLEVA EL SOLO ENCIMA)
Todos sabemos que sos una mentira,
todos sabemos que vos sos un cagón,
22 años vos la llevas adentro,
amargo sin aliento, no lo podes creer,
Me demostraste que esa hinchada puta,
amiga de la yuta, no para de correr,

        LA
Y yo te voy a recordar,
LA              SI
tu peor humillacion,
SI                   MI
en tu cancha y en tu cara,
MI                    LA
Newell´s ya salió campeón.

LE TENGO QUE DAR LAS GRACIAS A EL PIBE QUE SACO LA CANCIÓN ESTA,
PORQUE LA VERDAD ESTA NO LA SAQUE DE OIDO, SINO QUE LA COPIE DE ESTA PAGINA,
ASI QUE GRACIAS!!

Cualquier cosa manden a [email protected]
VAMOS LA LEPRA!!!!! NEWELL´S LA MITAD + LA OTRA MITAD DE ROSARIO!!!


Video Clip de Newell´s - tu peor humillación


ACORDES PARA GUITARRA

PIANO UKELELE
A
B
E


TOP 20: Las más tocadas de Himnos de futbol


Acordes

Cerrar
A
B
E

02.11

x

85