Deserto
Iahweh
Acordes

Subida por EUDY
Álbum: Deserto (2014)



Cambiar Cifrado
Americano Latino

Cambiar Tonalidad
-1 +1

Partir Pantalla Imprimir FAQ

+A
-A

LETRA Y ACORDES

Intro:
E|-----8-5~----12/13-12-------5-8----12/13-12---8-8/10~--|
B|-5-6------------------13--------8~----------5----------|
G|-------------------------12----------------------------|
D|-------------------------------------------------------|
A|-------------------------------------------------------|
E|-------------------------------------------------------|

Dm F
Em meio às flores...secas, em um campo aberto,
C Dm
Existe um deserto no peito da multidão,
Dm F
Onde a canção que toca é o silêncio.
C Dm
A alma segura nas mãos da solidão.
Gm Dm
Mas foi no deserto que Ele venceu também.
Gm Bb C
Hoje é sua vez. Deus vive em você.
Dm Gm
Retorne o Rei em majestade.
Bb C Dm
Todo joelho ao chão ante o nome do Senhor.
Dm Gm Bb
Eis o Reino esperado: justiça alegria e paz.
C Dm
Divina redenção.

Solo: ( Dm C Gm Bb Dm )

E|-13---------13----------------------|
B|-15b(16)----15b(16)-17t(r15)---15~~-|
G|------------------------------------|
D|------------------------------------|
A|------------------------------------|
E|------------------------------------|

E|---------------------------------------------------|
B|----------------10-11-10-12b(14)--(14)r12-10h11p10-|
G|-5/9-10-9-10/12------------------------------------|
D|---------------------------------------------------|
A|---------------------------------------------------|
E|---------------------------------------------------|

E|-----------------------------------|
B|-----------------------------------|
G|-9p10h9----------------------------|
D|--------10-8-7-7p8h7---------------|
A|---------------------10-7--//5-5~~-|
E|-----------------------------------|

E|--------------------------|
B|--------------------------|
G|-9ph10p9-7-9/12~~7-9/14~~-|
D|--------------------------|
A|--------------------------|
E|--------------------------|

E|-------------------------------|
B|-------------------------------|
G|-9/14-16b(17r16)-16b(17r16b18)-|
D|-------------------------------|
A|-------------------------------|
E|-------------------------------|

E|------------------------------------------------------|
B|------------------------------------------------------|
G|------------------------------------------------------|
D|----------------------------------12---12-14-12-14-15-|
A|-------12----12-13-12-13-15-13-15----15---------------|
E|-13-15----15------------------------------------------|

E|----------------------------------------|
B|----------------------------------15----|
G|-------12----12-14-12-14-15-14-15----14-|
D|-14-15----15----------------------------|
A|----------------------------------------|
E|----------------------------------------|

Dm F
Na aflição, imerso em nuvens negras,
C
o suor virou sangue.
Dm
O manso teve a visão.
Dm F
Na sequidão, surgiam oásis,
C Dm
Mas a sede da alma findava com a oração.
G Dm
Mas foi no deserto que Ele venceu também.
Gm Bb C
Hoje é sua vez. Deus vive em você.
Dm Gm
Retorne o Rei em majestade.
Bb C Dm
Todo joelho ao chão ante o nome do Senhor.
Dm Gm Bb
Eis o Reino esperado: justiça alegria e paz.
C Dm
Divina redenção.

Recuerda que #AcordesWeb.com se mantiene en línea gracias al aporte de nuestros anunciantes.

Toca una Canción al Azar de Iahweh



ACORDES

PIANO UKELELE
Dm
F
C
Gm
Bb
G



COMENTARIOS

Aún no hay comentarios,

¡escribe el primero!

Escribe un comentario o pregunta sobre esta canción




Más canciones de Iahweh

  • Rio Caudal
  • Verdadeiro Amor
  • Getsemani
  • Jesus Is The Rock
  • Fogo do Espírito
  • Salve Rainha
  • Lágrimas
  • Música na Alma
  • Entre Sorrisos E Choros
  • Sem Deixar de Amar
  • Misericórdia Senhor
  • Promessa
  • Versos Contrários do Que Chorou
  • Novos Passos
  • Eterno Deus
  • Escolha
  • Volta
  • Deserto
  • Ruah
  • Siguiente

    Dm
    F
    C
    Gm
    Bb
    G

    Nuestro servidor se demoró 0.27 segundos en generar esta página. Que velocidad!