Paz No Coração
Iahweh
Acordes

Subida por elbro


Más Versiones
Ver. 2 Ver. 3 Ver. 4 Ver. 5 Ver. 6

Cambiar Cifrado
Americano Latino

Cambiar Tonalidad
-1 +1

Partir Pantalla Imprimir FAQ

+A
-A
Mudar para Português
E|-------------------------------------------------15-14----------
B|-------------------------------------------------------15-------
G|-9-11-12-9-11-12-14-----------9-11-12-9-11-12/14----------------
D|--------------------10-12-14------------------------------------
A|----------------------------------------------------------------
E|----------------------------------------------------------------

Em C7M
Medo, angústia e solidão,
Em C7M
pessoas jogadas pelo chão
C D Em
O terror invadiu esta nação
C
e o afeto fugindo pelas mãos
D Em
Escuto um grito em meio à multidão
D/F# Em
Ó, meu Deus, quero paz em meu coração

E|---------------14h15p14-------------10-10-10------------------------------
B|----------15h17--------15-----------12-10-12------------------------------
G|-9-11-12-------------------------------9-11-12--14-11h12p11h12p12--- /9---
D|--------------------------10-12-14----------------------------12----------
A|--------------------------------------------------------------------------
E|--------------------------------------------------------------------------

E|-12h14h15p14p12-10h12h14p14p12-8h10h12p10p8-7h8h10p8p7--------------------
B|--------------------------------------------------------------------------

Em
Foi ali,
C
era um dia sem paz
Em
Você se foi
D
para não voltar jamais
Em
Acabou
C
uma vida sem razão
Em
A essência do amor
D
Esgotou no coração

E|------------------------------------14b16-14-14b16-14b16-15b17-15-15b17-15b17------
B|----------------10/12/10---15b17-15------------------------------------------------
G|---------12-------------12---------------------------------------------------------
D|-12--------12-10-------------------------------------------------------------------
A|---12-10---------------------------------------------------------------------------
E|-----------------------------------------------------------------------------------

(16 vezes) T (12 vezes) T
E|-10h12h14p12p10--------------15p10h12h14p12p10-15---------------------------
B|--------------------------------------------------------------------------
G|--------------------------------------------------------------------------
D|--------------------------------------------------------------------------
A|--------------------------------------------------------------------------
E|--------------------------------------------------------------------------

Em C7M
O céu cinzento está
Em C7M
e todos estão a chorar
C D Em
Quantos corpos perdidos pelo chão,
C
Quanta dor que passou por nossas mãos,
D Em
pelo sangue espalhado todo em vão,
D/F# Em
pela falta de paz no coração

E|---------------14h15p14-------------10-10-10------------------------------
B|----------15h17--------15-----------12-10-12------------------------------
G|-9-11-12-------------------------------9-11-12--14-11h12p11h12p12--- /9---
D|--------------------------10-12-14----------------------------12----------
A|--------------------------------------------------------------------------
E|--------------------------------------------------------------------------

E|-12h14h15p14p12-10h12h14p14p12-8h10h12p10p8-7h8h10p8p7--------------------
B|--------------------------------------------------------------------------

Em
Foi ali,
C
era um dia sem paz
Em
Você se foi
D
para não voltar jamais
Em
Acabou
C
uma vida sem razão
Em
A essência do amor
D
Esgotou no coração

ACORDES PARA GUITARRA

PIANO UKELELE
Em
Cmaj7
C
D
D/F#


COMENTARIOS

Aún no hay comentarios,

¡escribe el primero!

Escribe una pregunta, duda o comentario sobre esta canción, te responderemos a la brevedad.

Las más tocadas de Iahweh

Toca una Canción al Azar de Iahweh
Em
Cmaj7
C
D
D/F#