In Front Of Me
Infected Mushroom
Acordes

Subida por Juan
Álbum: Vicious Delicious ( 2007)



HERRAMIENTAS

Cambiar Cifrado
Americano Latino

Cambiar Tonalidad
-1 +1

Partir Pantalla Imprimir FAQ

Ver solo la LETRA

+A
-A

LETRA CON ACORDES

¿Tu Guitarra esta Afinada? PRUEBA NUESTRO NUEVO AFINADOR

Tabbed by: Meidan Greenberg
Email/MSN: *@*

Tuning:EADGBe (Normal)
-------------------------------------------------------------------------------
Intro: (00:16)

Why can't i see...what's in front of me. (X2)

Verse 1: (00:42)

I see the
doors that i can't open, and it locks from time to time.
e|--------------------|--------------------|
B|--------------------|--------------------|
G|--------------------|--------------------|
D|--------------------|--------------------|
A|--------------------|--------------------|
E|-0---0x------0---0x-|-0---0x-------0-0-8~| When it


opens something blocks me, and i asking my self why...
e|--------------------------------------|
B|--------------------------------------|
G|--------------------------------------|
D|--------------------------------------|
A|--------------------------------------|
E|-7---7x-----7---7x-|-5---5x-----5~-7~-|


Pre-Chorus 1: (00:55)

Did I take the step I wanted, was it just a state of mind.
e|---------------------------------------------|
B|---------------------------------------------|
G|---------------------------------------------|
D|---------------------------------------------|
A|----------------------------------------5--4~|
E|-8---8x----8--10---10x----0---0x-------------|


I feel sorry for my self, every time I close my eyes.
e|-----------------------------------------|
B|-----------------------------------------|
G|-----------------------------------------|
D|-----------------------------------------|
A|-----------------------------------------|
E|-8---8x----8-7---7x-|-5-5-5-5-5-5-5-5-7~-|

Chorus: (01:09)

A C EM D
And I
Fall into a holl, and I can't take no more. (X4)


InterludeBreak: (01:36)
(Let it ring.) X3

e|-------------|
B|-------------|
G|-----0-------|
D|--------4----|
A|-----------2-|
E|-0-----------|

Bridge[Intro]: (01:49)

Why can't i see...what's in front of me. (X2)


Verse 2: (02:14)

What's
behind the door i wonder, must be brighter then my past.
e|-------------------------------------------|
B|-------------------------------------------|
G|-------------------------------------------|
D|-------------------------------------------|
A|-------------------------------------------|
E|-0--0--0x---0--0x----0--0--0x---0--0--0--0x|


Would I feel a little different, when i take my self a course.
e|--------------------------------------------------|
B|--------------------------------------------------|
G|--------------------------------------------------|
D|--------------------------------------------------|
A|--------------------------------------------------|
E|-0--0--0x---0--0x----10--10--10x---10--10--10--10x|


Pre-Chorus 2: (02:28)
Was it
really worth that jurney, (or) was it
e|--------------------------------------------------|
B|--------------------------------------------------|
G|--------------------------------------------------|
D|--------------------------------------------------|
A|--------------------------------------------------|
E|-8--8--8x---8--8x----10--10--10x---10--10--10--10x|

just a foolish task
e|-------------------------------------------|
B|-------------------------------------------|
G|-------------------------------------------|
D|-------------------------------------------|
A|-------------------------------------------|
E|-0--0--0x---0--0x----9--9--9x---9--9--9--9x|

I feel
sorry for my self,
e|-------------------------------------------|
B|-------------------------------------------|
G|-------------------------------------------|
D|-------------------------------------------|
A|-------------------------------------------|
E|-8--8--8x---8--8x----7--7--7x---7--7--7--7x|

When I open up my eyes.
e|-------------------------------------------|
B|-------------------------------------------|
G|-------------------------------------------|
D|-------------------------------------------|
A|-------------------------------------------|
E|-5--5--5x---5--5x----7--7--7x---7--7--7--7x|


Chorus: (02:42)
(With piano riff.)

And I
Fall into a holl, and I can't take no more. X4..[Than piano break.]

(03:23):
And I
Fall into a holl, and I can't take no more.

e|------------------------------------------|
B|------------------------------------------|
G|------------------------------------------|
D|------------------------------------------|
A|------------------------------------------|
E|-x-x-x-5--x-x-x-8--x-x-x-0--x-x-10~--10x|

And I
Fall into a holl, and I can't take no more.

e|--------------------------------------------|
B|--------------------------------------------|
G|--------------------------------------------|
D|--------------------------------------------|
A|--------------------------------------------|
E|-x-x-x-5--x-x-x-x-x--x-x-x-0--x-x-x-x-10-10|
X3
--------------------------------------------------------

And I
Fall into a holl, and I can't take no more.

e|------------------------------------------|
B|------------------------------------------|
G|------------------------------------------|
D|------------------------------------------|
A|------------------------------------------|
E|-x-x-x-5--x-x-x-8--x-x-x-0--x-x-10~--10x|

And I
Fall into a holl, and I can't take no more.

e|--------------------|----------------------|
B|--------------------|----------------------|
G|--------------------|----------------------|
D|--------------------|----------------------|
A|--------------------|----------------------|
E|-0---0x------0---0x-|-0---0x-------0-0-0-0x|


Piano&Strings Outro: (04:01)

You can play this Chords: A C EM D
A C EM D
A C EM D
A C EM

////////////////// ¿Te Animas? Sube una canción a este sitio. //////////////////

ACORDES PARA GUITARRA

PIANO UKELELE


COMENTARIOS

Aún no hay comentarios,

¡escribe el primero!

Escribe una pregunta, duda o comentario sobre esta canción, te responderemos a la brevedad.

Las canciones más tocadas de Infected Mushroom

Toca una Canción al Azar de Infected Mushroom

23.28


Nuestro servidor se demoró 0.06 segundos en generar esta página. Eso fue realmente muy rápido!