Compartir


Imprimir FAQ
+A
-A

Texto

Desplazamiento

Transportador

Color de Fondo

Archivos

-A
+A
Tuning: Standard
Transcribed by Soch H.


|--------------------------------------------------------------|
|-------13-15b17r~--13-------13-12~-----12-13~-----15b17r-13~--|
|----14----------------14-12---------12-------14~--------------|
|-14-----------------------------------------------------------|
|--------------------------------------------------------------|
|--------------------------------------------------------------|

|-------------------------------------------------------15-----|
|-------13-15b17r~--13-------13-12~-----12-13~---15=b17----13--|
|----14----------------14-12---------12------------------------|
|-14-----------------------------------------------------------|
|--------------------------------------------------------------|
|--------------------------------------------------------------|

|--------------------------------------------------------------|
|-------13-15b17r~--13-------12--------------------------------|
|----14----------------14-12---------12-----10-----------------|
|-14----------------------------12~-----14-----10~-9b10r--7~---|
|--------------------------------------------------------------|
|--------------------------------------------------------------|

|----------------------------------------------------------------|
|-------13-15b17r~--13----------13--13b15-13b15-13b15r-12-13p12--|
|----14----------------14-12-14----------------------------------|
|-14-------------------------------------------------------------|
|----------------------------------------------------------------|
|----------------------------------------------------------------|

|-----------15------|
|-----15b17----13~--|
|-14----------------|
|-------------------|
|-------------------|
|-------------------|

|--------------------------------------------------------------|
|-------13-15b17r~--13-------13-12~-----12-13~-----15b17r-13~--|
|----14----------------14-12---------12-------14~--------------|
|-14-----------------------------------------------------------|
|--------------------------------------------------------------|
|--------------------------------------------------------------|

|-------------------------------------------------------15-----|
|-------13-15b17r~--13-------13-12~-----12-13~---15=b17----13--|
|----14----------------14-12---------12------------------------|
|-14-----------------------------------------------------------|
|--------------------------------------------------------------|
|--------------------------------------------------------------|

|--------------------------------------------------------------|
|-------13-15b17r~--13-------12--------------------------------|
|----14----------------14-12---------12-----10-----------------|
|-14----------------------------12~-----14-----10~-9b10r--7~---|
|--------------------------------------------------------------|
|--------------------------------------------------------------|

|--------------------------------------------------------------|
|-------13-15b17r~--13-----------------------------------------|
|----14----------------14-12-14-12~---12b==14------------------|
|-14-----------------------------------------------------------|
|--------------------------------------------------------------|
|--------------------------------------------------------------|

Video Clip de Stretched


ACORDES PARA GUITARRA

PIANO UKELELE


TOP 20: Las más tocadas de Infected Mushroom


Acordes

Cerrar

05.57

x

136