Gil trabajador
Iorio - Flavio
Acordes

Subida por mario


Más Versiones
Ver. 2

Cambiar Cifrado
Americano Latino

Cambiar Tonalidad
-1 +1

Partir Pantalla Imprimir FAQ

+A
-A
Intro:
-|---------------------------|--------------------------|----|-
-|---------------------------|--------------------------|----|-
-|---------------------------|--------------------------|----|-
-|-------------------------5-|--------------------------|-x4-|-
-|---------------------------|--------------------9-7-7-|----|-
-|-3-000-3-000-3-000---5-7---|-3-000-3-000-3-000--7-5-5-|----|-

G5 E5
El tormento del vino artificial
G5 E5
y su atmósfera parrillera
G5 E5
anestesian la conciencia común,
C5 D5
que transcurre su infancia,
Riff 1:
e-|---------------------------|--------------------------|-
B-|---------------------------|--------------------------|-
G-|---------------------------|--------------------------|-
D-|-------------------------5-|--------------------------|-
A-|---------------------------|--------------------9-7-7-|-
E-|-3-000-3-000-3-000---5-7---|-3-000-3-000-3-000--7-5-5-|- con riff 1
en la tierra estomacal.
G5 E5
Masticando esta siniestra heredad,
prisionero estoy en mi ciudad natal.
Donando sangre al antojo de un patrón,
C5 D5
por un mísero sueldo.
B5 C5 C5-B5-A5
Con el cual, no logro esquivar,
A5 D5
el trago amargo de este mal momento.
B5 C5
Mientras el mundo policía y ladrón,
A5 D5
me bautiza, sonriendo:


con riff 1
gil trabajador.
Bestia humana que duermes aún
de la cuna al ataúd.
Extraviada del rumbo a seguir,
por ignorar que no existe.
El fin, de que escapar.
De Pacheco a la Paternal,
de Dock Sud a 3 de Febrero.
Mis amigos con el corazón,
escuchan esta canción.
Para atravezar, el trago amargo
de este mal momento,
mientras el mundo policía y ladrón,
me bautiza sonriendo:
gil trabajador,
gil trabajador!

////////////////// ¿Te Animas? Sube una canción a este sitio. //////////////////

ACORDES PARA GUITARRA

PIANO UKELELE
G5
E5
C5
D5
B5
A5


COMENTARIOS

Aún no hay comentarios,

¡escribe el primero!

Escribe una pregunta, duda o comentario sobre esta canción, te responderemos a la brevedad.

Las más tocadas de Iorio - Flavio

Toca una Canción al Azar de Iorio - Flavio
G5
E5
C5
D5
B5
A5