Nacido y criado en el Sur
Iorio - Flavio
Acordes

Subida por tehuete


Más Versiones
Ver. 2

Cambiar Cifrado
Americano Latino

Cambiar Tonalidad
-1 +1

Partir Pantalla Imprimir FAQ

+A
-A
Riff 1:
E5 G5 E5 Bb5 E5 F5
e-|----------------------------|-
B-|----------------------------|-
G-|----------------------------|-
D-|-2-2-------2-2--3-3---------|-
A-|-2-2--5-5--2-2--1-1--2-2--3-|-
E-|-0-0--3-3--0-0-------0-0--1-|-

(con riff 1)
MI Abuelo me decía,
aquí el invierno siempre es lucha.
Pero el frío tan intenso
enciende el fuego espiritual.
Punta de flecha y sangre
se mezclan con la tierra
del terrateniente,
de los pueblos del sur.

Riff 2:
E5 G5 E5 Bb5
e-|---------------------|----|-
B-|---------------------|----|-
G-|---------------------|----|-
D-|-------------------3-|-x2-|-
A-|-2-2-2--5---2-2-2--1-|----|-
E-|-0-0-0--3---0-0-0----|----|-
(con riff 2)
Nacido y criado en el sur, lo ví tatuado.
Cultura Aoniken hasta los huesos.
La paz no es el arma de lo débiles,
sino de los espíritus mas recios.

Riff 3:
G5 A5 E5 A G Bb5 A G E A G
e-|-------------|--------------------|-------------------|-
B-|-------------|--------------------|-------------------|-
G-|-------------|--------------------|-------------------|-
D-|-------------|--------------------|-------------------|-
A-|-5-5--7-7--2-|-7-5--8--8-7-5-2--2-|-7-5--5----------4-|-
E-|-3-3--5-5--0-|-5-3--6--6-5-3-0--0-|-5-3--3--3-5-6-3---|-
(con riff 3)
Patagonia rebelde
Ballenas libres en el mar.
Patagonia rebelde
Viento de las montañas del sur.
Punta, gualicho,sangre.
Guadaña, calavera.
Terror latifundista
de las playas desiertas.
Y mi abuelo continuaba,
aquí la gente se hace dura.
Compensando el trago amargo,
con calor del corazón.
Indios, gringos y criollos se mezclaron.
Es historia la masacre huelguista.
La paz no es el arma de lo débiles,
sino de los espíritus mas recios.
Patagonia rebelde
Ballenas libres en el mar.
Patagonia rebelde
Viento de las montañas del sur.
Solo de guitarra en estos riffs

Riff 4:
e-|-------------|-----------|----|-
B-|-------------|-----------|----|-
G-|---------6h7-|---------6-|----|-
D-|-5-5---5-4h5-|-5-5---5-4-|-x5-|-
A-|-3-3---3-----|-3-3---3---|----|-
E-|-------------|-----------|----|-
Riff 3:
G5 A5 E5 A G Bb5 A G E A G
e-|-------------|--------------------|-------------------|-
B-|-------------|--------------------|-------------------|-
G-|-------------|--------------------|-------------------|-
D-|-------------|--------------------|-------------------|-
A-|-5-5--7-7--2-|-7-5--8--8-7-5-2--2-|-7-5--5----------4-|-
E-|-3-3--5-5--0-|-5-3--6--6-5-3-0--0-|-5-3--3--3-5-6-3---|-

Final: C5 - E5


ACORDES PARA GUITARRA

PIANO UKELELE
E5
G5
Bb5
F5
E
A5
A
G
E
C5


COMENTARIOS

Aún no hay comentarios,

¡escribe el primero!

Escribe una pregunta, duda o comentario sobre esta canción, te responderemos a la brevedad.

Las más tocadas de Iorio - Flavio

Toca una Canción al Azar de Iorio - Flavio
E5
G5
Bb5
F5
E
A5
A
G
E
C5