A vida por um fio
I.R.A.
Acordes

Subida por Edgardo
Álbum: Entre Seus Rins ( 2001)



Otras Versiones
Ver. 2

Cambiar Cifrado
Americano Latino

Cambiar Tonalidad
-1 +1

Partir Pantalla Imprimir FAQ

+A
-A
LETRA CON ACORDES

--------------------------------------------
Tirei esta música do CD Entre Seus Rins, só
que eu cifrei com o violão, portanto, não
determinei as distorções que tem nela.
Esta cifra é como se a música fosse acústica
quero dizer voz e violão.
--------------------------------------------
__________________________________________
Esta é uma sugestão de como tocar a música:

A C
E|--5-5-x-5-5-5-x-5-5-5-x-3-3-x--|
B|--5-5-x-5-5-5-x-5-5-5-x-5-5-x--|
G|--6-6-x-6-6-6-x-6-6-6-x-5-5-x--|
D|--7-7-x-7-7-7-x-7-7-7-x-5-5-x--|
A|--7-7-x-5-7-7-x-7-7-7-x-3-3-x--|
E|--5-5-x-5-5-5-x-5-5-5-x--------|

A C#
E|--5-5-x-5-5-5-x-5-5-5-x-4-4-x--|
B|--5-5-x-5-5-5-x-5-5-5-x-6-6-x--|
G|--6-6-x-6-6-6-x-6-6-6-x-6-6-x--|
D|--7-7-x-7-7-7-x-7-7-7-x-6-6-x--|
A|--7-7-x-5-7-7-x-7-7-7-x-4-4-x--|
E|--5-5-x-5-5-5-x-5-5-5-x--------|

D D#
E|--5-5-x-5-5-5-x-5-5-5-x-6-6-x--|
B|--7-7-x-7-7-7-x-7-7-7-x-8-8-x--|
G|--7-7-x-7-7-7-x-7-7-7-x-8-8-x--|
D|--7-7-x-7-7-7-x-7-7-7-x-8-8-x--|
A|--5-5-x-5-5-5-x-5-5-5-x-6-6-x--|
E|-------------------------------|

Sentido do toque:
----------------

Quando a linha vertical tiver assim:

|
|
|
|
-

Isto significa que você ira toca
para baixo.

E quando estiver assim:
_
|
|
|
|

Você irá tocar para cima.

Exemplo:

A C
_ _ _ _ _ _ _
| | | | | | | | | | | | | |
| | | | | | | | | | | | | |
| | | | | | | | | | | | | |
| | | | | | | | | | | | | |
- - - - - - -

_______________________________________


Introdução: (A C A C#) 2x

A C
Existe nessa terra
A C#
O equilíbrio natural
A C
Entre luz e sombra
A
Entre o bem e o mal

D D#
Meu Deus, o que vou ser
D D#
Quando parar de crescer?
D
Não sei o que vou ser
D# D
Quando parar de crescer?

Introdução

A C
O açúcar me vicia
A C#
É a indústria do prazer
A C
Há química em mim
A C#
Há química em você
A C
Há química em mim
A C#
Há química em você
A C
Há química em mim
A
Há quí-mi-ca em você

(A)
A vida por um fio

A vida por um fio

A vida por um fio

A vida por um fio

A C
Existe nessa terra
A C#
O equilíbrio natural
A C
Entre o masoquista
A
E o sádico infernal

D D#
Meu Deus, o que vou ser
D D#
Quando parar de crescer?
D
Não sei o que vou ser
D# D
Quando parar de crescer?

(A)
A vida por um fio

A vida por um fio

A vida por um fio

A vida por um fio

ACORDES PARA GUITARRA

PIANO UKELELE
A
C
C#
D
D#



COMENTARIOS

Aún no hay comentarios,

¡escribe el primero!

Escribe un comentario o pregunta sobre esta canción


TOP 20: Las más tocadas de I.R.A.

Ver más

Toca una Canción al Azar de I.R.A.
A
C
C#
D
D#

Nuestro servidor se demoró 0.02 segundos en generar esta página. Eso fue realmente muy rápido!