Como Os Ponteiros de Um Rélogio

I.R.A.

Acordes

Mudança de Comportamento (1985)
Subida por carochiurazzi


Más Versiones
Ver. 2 Ver. 3 Ver. 4 Ver. 5 Ver. 6

Cambiar Cifrado
Americano Latino

Cambiar Tonalidad
-1 +1

Partir Pantalla Imprimir FAQ

+A
-A


Ver solo la LETRA
iNTRO: E Em A D

jUNTO COM A INTRODUÇÃO
e|--X-X-X-X-X-X-X-X-X--X-X-X-X-X-X-X-X-X--X-X-X-X-X-X-X-X-X------------------|
B|--5-5-5-5-5-5-5-5-5--4-4-4-4-4-4-4-4-4--3-3-3-3-3-3-3-3-3------------------|
G|--5-5-5-5-5-5-5-5-5--4-4-4-4-4-4-4-4-4--3-3-3-3-3-3-3-3-3------------------| 2X
D|--X-X-X-X-X-X-X-X-X--X-X-X-X-X-X-X-X-X--X-X-X-X-X-X-X-X-X----2--0-2-3------|
A|--3-3-3-3-3-3-3-3-3--2-2-2-2-2-2-2-2-2--2-2-2-2-2-2-2-2-2----2-------------|
E|-------------------------------------------------------------0-------------|

e|-----------------------------------------0--|
B|-----------------------------------------0--|
G|-----------------------------------------0--|
D|---2----0-2-3--2----0-2-3--2----0-2-3----2--|
A|---2-----------2-----------2-------------2--|
E|---0-----------0-----------0-------------0--|

RIFF 1 1ª PARTE
e|--X-X-X-X-X-X-X-X-X--X-X-X-X-X-X-X-X-X--X-X-X-X-X-X-X-X-X------------------|
B|--5-5-5-5-5-5-5-5-5--4-4-4-4-4-4-4-4-4--3-3-3-3-3-3-3-3-3------------------|
G|--5-5-5-5-5-5-5-5-5--4-4-4-4-4-4-4-4-4--3-3-3-3-3-3-3-3-3------------------| 2X
D|--X-X-X-X-X-X-X-X-X--X-X-X-X-X-X-X-X-X--X-X-X-X-X-X-X-X-X----2--0-2-3------|
A|--3-3-3-3-3-3-3-3-3--2-2-2-2-2-2-2-2-2--2-2-2-2-2-2-2-2-2----2-------------|
E|-------------------------------------------------------------0-------------|
2ª PARTE
e|-----------------------------------------0--|
B|-----------------------------------------0--|
G|-----------------------------------------0--|
D|---2----0-2-3--2----0-2-3--2----0-2-3----2--|
A|---2-----------2-----------2-------------2--|
E|---0-----------0-----------0-------------0--|

RIFF 2
e|------------------------|
B|------------------------|
G|------------------------| 4X
D|--9-9-9-9-9-9-9-9-9-----|
A|--9-9-9-9-9-9-9-9-9-----|
E|--7-7-7-7-7-7-7-7-7-----|

RIFF 1
A solidão que corre dentro |
O medo de ser o que não sou |
Um grito de criança nascida |
Ondas de intermináveis seqüências | (1ª PARTE)
Cada onda é uma fase vivida |
Recordações de coisas más |
Situações desagradáveis |
Situações já sentidas (2ª PARTE)

B5
No começo era uma sensação
Depois o corpo se duplica
Como os ponteiros de um rélogio
Um gira até encontrar o outro

RIFF 1
Agora não existe mais corpo |
Agora não existe mais nada | (1ª PARTE)
Somente a dor, vontade de viver |
Somente a solidão |
Somente a saudade
Somente a Saudade

2ª PARTE

NUEVO FORO DE MÚSICA

¿Tienes alguna duda, consulta, pregunta, consejo o algo para compartir sobre esta canción?

¡Puedes abrir un hilo en el FORO para que la comunidad te ayude! Hacer una pregunta

ACORDES PARA GUITARRA

PIANO UKELELE
E
Em
A
D
B5


Las más tocadas de I.R.A.

E
Em
A
D
B5