Vitrine Viva
I.R.A.
Acordes

Subida por Mj120400
Álbum: Vivendo e não aprendendo ( 1986)



Cambiar Cifrado
Americano Latino

Cambiar Tonalidad
-1 +1

Partir Pantalla Imprimir FAQ

+A
-A
LETRA CON ACORDES
intro:  A   (segura essa nota, depois q terminar o solo do baixo, vc tok isso)

e|------------------------------------------------------
B|------------------6~5~4~3/6----------------6~5~4~3/6--
G|----5-5-7-5-5h7p5------------5-5-7-5-5h7p5------------
D|------------------------------------------------------
A|------------------------------------------------------
E|------------------------------------------------------

e|------------------------------------------------------
B|------------------8~7~6~5/8----------------8~7~6~5/8--
G|----7-7-9-7-7h9p7------------7-7-9-7-7h9p7------------
D|------------------------------------------------------
A|------------------------------------------------------
E|------------------------------------------------------

A A A
Ontem não gostei, que não gostei de tudo
A A A
Quando te beijei, quando te beijei na boca
A A A
Ontem na cidade, ontem na cidade sangue
A A A
Enquanto eu te beijava, enquanto eu te beijava na boca beiber

e|------------------------------------------------------
B|------------------6~5~4~3/6----------------6~5~4~3/6--
G|----5-5-7-5-5h7p5------------5-5-7-5-5h7p5------------
D|------------------------------------------------------
A|------------------------------------------------------
E|------------------------------------------------------

e|------------------------------------------------------
B|------------------8~7~6~5/8----------------8~7~6~5/8--
G|----7-7-9-7-7h9p7------------7-7-9-7-7h9p7------------
D|------------------------------------------------------
A|------------------------------------------------------
E|------------------------------------------------------

A A A
Ontem na cidade, ontem na cidade sangue
A A A
Na vitrine uma modelo, na vitrine uma modelo linda

(no solo vc pode acompanhar assim)

G|---------|
D|----7----| TOCA ISSO ATÉ ACABAR O SOLO
A|----7----|
E|----7----|

Vitrine Viva, quero ouvir
Vitrine Viva, quero ouvir
Vitrine Viva, hehehehe
Vitrine Viva, hehe
Vitrine Viva, viva
Vitrine Viva, viva
Vitrine Viva, viva
Vitriiiiiiiiiiiiine

e|------------------------------------------------------
B|------------------6~5~4~3/6----------------6~5~4~3/6--
G|----5-5-7-5-5h7p5------------5-5-7-5-5h7p5------------
D|------------------------------------------------------
A|------------------------------------------------------
E|------------------------------------------------------

e|------------------------------------------------------
B|------------------8~7~6~5/8----------------8~7~6~5/8--
G|----7-7-9-7-7h9p7------------7-7-9-7-7h9p7------------
D|------------------------------------------------------
A|------------------------------------------------------
E|------------------------------------------------------

A A A
Eu ontem estava lá, euontem estava lá era ontem
A A A
Você estava lá, você estava lá e eu não vi

Que azaro meu
A
Você estava lá eu também
A
Você estava lá eu também
Você estava
Você estava
Eu também

e|------------------------------------------------------
B|------------------6~5~4~3/6----------------6~5~4~3/6--
G|----5-5-7-5-5h7p5------------5-5-7-5-5h7p5------------
D|------------------------------------------------------
A|------------------------------------------------------
E|------------------------------------------------------

e|------------------------------------------------------
B|------------------8~7~6~5/8----------------8~7~6~5/8--
G|----7-7-9-7-7h9p7------------7-7-9-7-7h9p7------------
D|------------------------------------------------------
A|------------------------------------------------------
E|------------------------------------------------------

Eu não sou uma vitrine viva
Eu não sou

SERIA BOM VCS ESCUTAREM A MÚSICA PRA DEPOIS TOCAR

ACORDES PARA GUITARRA

PIANO UKELELE
A



COMENTARIOS

Aún no hay comentarios,

¡escribe el primero!

Escribe un comentario o pregunta sobre esta canción


TOP 20: Las más tocadas de I.R.A.

Ver más

Toca una Canción al Azar de I.R.A.
A

Nuestro servidor se demoró 0.02 segundos en generar esta página. Eso fue realmente muy rápido!