Bajo Bar
I.R.A.
Acordes

Subida por Jerry2012


Más Versiones
Ver. 2 Ver. 3

Cambiar Cifrado
Americano Latino

Cambiar Tonalidad
-1 +1

Partir Pantalla Imprimir FAQ

+A
-A
Tascripcion de:Mauricio Parra
[email protected]
Apollar lo d adento es bueno y sano
TRISOMÌA 21
MI BANDA


INTRO:
E5 F# D5 E5
E|---------------------------------------------------|
B|---------------------------------------------------|
G|-9--9-9-9-9-9--11-11-11-11-11--7-7-7-7-7--9-9-9-9-9|
D|-9--9-9-9-9-9--11-11-11-11-11--7-7-7-7-7--9-9-9-9-9|
A|-7--7-7-7-7-7--9--9--9--9--9---5-5-5-5-5--7-7-7-7-7|
E|---------------------------------------------------|

C5 B5 C5 D5
|-------------|
|-5-5-5-4-5-7-|
|-5-5-5-4-5-7-|
|-3-3-3-2-3-5-|
|-------------|


E5 F# D5 E5 C5 B5 C5 D5
Buen lugar pasar con los amigos el lugar donde pasamos tu y yo
E5 F# D5 E5 C5 B5 C5 D5
no tenia mucha cancion solo musica solo musica y algo de licor

CORO

E5 C5 G5 A5
Q vida, desorden, los desentro nos echaron la poli
E5 C5 G5 A5
Q vida, desorden, los vecinos nos echaron la poli
E5 C5 G5 A5
euforia, sicosis, nos sellaron esa misma noche.


Intermedio

E5 F# D5 E5
E|------------------------------------------------------|
B|------------------------------------------------------|
G|-9--9-9-9-9-9--11--11-11-11-11--7--7-7-7-7--9--9-9-9-9|
D|-9--9-9-9-9-9--11--11-11-11-11--7--7-7-7-7--9--9-9-9-9|
A|-7--7-7-7-7-7--9---9--9--9--9---5--5-5-5-5--7--7-7-7-7|
E|------------------------------------------------------|

C5 B5 C5 D5
|-------------|
|-5-5-5-4-5-7-|
|-5-5-5-4-5-7-|
|-3-3-3-2-3-5-|
|-------------|



E5 F# D5 E5 C5 B5 C5 D5
Sesabia q un poco bar los tenderos lo volvieron una ruina
E5 F# D5 E5 C5 B5 C5 D5
parte para amigos de verdad lo q comienza nunca deve terminar


CORO

E5 C5 G5 A5
Q vida, desorden, los desentro nos echaron la poli
E5 C5 G5 A5
Q vida, desorden, los vecinos nos echaron la poli
E5 C5 G5 A5
euforia, sicosis, nos sellaron esa misma noche.


Intermedio final

E5 F# D5 E5
E|------------------------------------------------------|
B|------------------------------------------------------|
G|-9--9-9-9-9-9--11--11-11-11-11--7--7-7-7-7--9--9-9-9-9|
D|-9--9-9-9-9-9--11--11-11-11-11--7--7-7-7-7--9--9-9-9-9|
A|-7--7-7-7-7-7--9---9--9--9--9---5--5-5-5-5--7--7-7-7-7|
E|------------------------------------------------------|

C5 B5 C5 D5
|-------------|
|-5-5-5-4-5-7-|
|-5-5-5-4-5-7-| x2
|-3-3-3-2-3-5-|
|-------------|






E5.C5.D5.B5.A5.C#5.F#5 G5
E|-X--X--X--X--X--X--X---X--X--
B|-X--X--X--X--X--X--X---X--X--
G|-9--5--7--4--X--X--11--7--11-
D|-9--5--7--4--7--11-11--7--11-
A|-7--3--5--2--7--11-9---5--9--
E|-X--X--X--X--5--9--X---X--X--



[email protected]
Se le agradese a Diego([email protected])
q viva el rock


ACORDES PARA GUITARRA

PIANO UKELELE
E
E5
F#
D5
C5
B5
G5
A5
C#5
F#5


COMENTARIOS

Aún no hay comentarios,

¡escribe el primero!

Escribe una pregunta, duda o comentario sobre esta canción, te responderemos a la brevedad.

Las más tocadas de I.R.A.

Toca una Canción al Azar de I.R.A.
E
E5
F#
D5
C5
B5
G5
A5
C#5
F#5