Control Fascita
I.R.A.
Acordes

Subida por antsoni


Más Versiones
Ver. 2 Ver. 3

Cambiar Cifrado
Americano Latino

Cambiar Tonalidad
-1 +1

Partir Pantalla Imprimir FAQ

+A
-A
INTRO:
E|----------------------------------------------|
B|----------------------------------------------|
G|-5/777-5/777------------3/555-3/555-----------|
D|-5/777-5/777-5555-7777--3/555-3/555-5555-3333-| x2
A|-3/555-3/555-5555-7777--3/555-3/555-5555-3333-|
E|-------------3333-5555--------------3333-1111-|

c5/D5 c5/D5
Bajo control fascista
G5 A5
Es algo que no debe ser
c5/D5 c5/D5
Intimidación racial
G5 F5
Su tradición obedecer
c5/D5 c5/D5
Que vulgar manera de
G5 A5
reducir a los demás
c5/D5 c5/D5
Es una ridiculez
G5 F5
metido ahí no duraras

CORO:
E|---------------------------------------------|
B|---------------------------------------------|
G|-777777777----7-------7777777777----7--------|
D|-777777777-77-7-7-5-7-7777777777-77-7-7-5-7--| x4
A|-555555555-77-5-7-5-7-5555555555-77-5-7-5-7--|
E|-----------55---5-3-5------------55---5-3-5--|

D5 A5 D5
La paternidad
A5 G5 A5
y el poder
D5 A5 D5
bajo el control
A5 G5 A5
fascista
D5 A5 D5
magnificacion
A5 G5 A5
sin querer
D5 A5 D5 A5 G5 A5
regimen total

E|----------------------------------------------|
B|----------------------------------------------|
G|-5/777-5/777------------3/555-3/555-----------|
D|-5/777-5/777-5555-7777--3/555-3/555-5555-3333-| x2
A|-3/555-3/555-5555-7777--3/555-3/555-5555-3333-|
E|-------------3333-5555--------------3333-1111-|

c5/D5 c5/D5
Bajo control fascista
G5 A5
Es algo que no debe ser
c5/D5 c5/D5
Intimidación racial
G5 F5
Su tradición obedecer
c5/D5 c5/D5
Que vulgar manera de
G5 A5
reducir a los demás
c5/D5 c5/D5
Es una ridiculez
G5 F5
metido ahí no duraras

CORO:
E|---------------------------------------------|
B|---------------------------------------------|
G|-777777777----7-------7777777777----7--------|
D|-777777777-77-7-7-5-7-7777777777-77-7-7-5-7--| x4
A|-555555555-77-5-7-5-7-5555555555-77-5-7-5-7--|
E|-----------55---5-3-5------------55---5-3-5--|

D5 A5 D5
La paternidad
A5 G5 A5
y el poder
D5 A5 D5
bajo el control
A5 G5 A5
fascista
D5 A5 D5
magnificacion
A5 G5 A5
sin querer
D5 A5 D5 A5 G5 A5
regimen total


ACORDES:
E|----X----X----X----X----X----|
B|----X----X----X----X----X----|
G|----5----X----7----X----X----|
D|----5----7----7----5----3----|
A|----3----7----5----5----3----|
E|----X----5----X----3----1----|
C5 A5 D5 G5 F5

DUDAS, COMENTARIOS O CORRECCIONES AL CORREO [email protected]


ACORDES PARA GUITARRA

PIANO UKELELE
G5
A5
F5
D5
C5


COMENTARIOS

Aún no hay comentarios,

¡escribe el primero!

Escribe una pregunta, duda o comentario sobre esta canción, te responderemos a la brevedad.

Las más tocadas de I.R.A.

Toca una Canción al Azar de I.R.A.
G5
A5
F5
D5
C5