Deambular
I.R.A.
Acordes

Subida por alfredomusic


Más Versiones
Ver. 2 Ver. 3

Cambiar Cifrado
Americano Latino

Cambiar Tonalidad
-1 +1

Partir Pantalla Imprimir FAQ

+A
-A
INTRO:
E|-------------------------------------------------------|
B|-------------------------------------------------------|
G|-------5-------------5-------------3-------------3-----| X4
D|-----5---5---------5---5---------3---3---------3---3---|
A|-3-3-------3---3-3-------3---1-1-------1---1-1-------1-|
E|-------------------------------------------------------|

E|----------------|
B|----------------|
G|-5~~--5-5-5555--|
D|-5~~--5-5-5555--|
A|-3~~--3-3-3333--|
E|----------------|

C5 G5
Caminar de noche
A5 C5
Deambular y morir
G5
Sin temer, ni temblar
F5 G5
Deambular y morir
C5 G5
Caminar de noche
A5 C5
Deambular y morir

C5
Te recordamos ahora
G5
Este momento es tuyo
A5
No te olvidare nunca
G5
Ni a tu podrida memoria

C5
Como olvidarte ahora
G5
Este momento es tuyo
F5
No te olvidare nunca
G5
Ni a tu podrida memoria

E|------------------------------------------------------|
B|------------------------------------------------------|
G|-555-4-0~~-4-5554-54-54---555-4-0~~--4-5554-54-5-0~~--|
D|------------------------------------------------------|
A|------------------------------------------------------|
E|------------------------------------------------------|

E|------------------------------------------|
B|------------------------------------------|
G|-777-5-4---45-445-7---9-7-5-4-5-4-2-4-5V--|
D|------------------------------------------|
A|------------------------------------------|
E|------------------------------------------|

ACORDES:
E|-----X-----X-----X-----X-----|
B|-----X-----X-----X-----X-----|
G|-----5-----X-----X-----X-----|
D|-----5-----5-----3-----7-----|
A|-----3-----5-----3-----7-----|
E|-----X-----3-----1-----5-----|
C5 G5 F5 A5

- DUDAS, COMENTARIOS, CORRECCIONES O CANCIONES DE CHITE
AL CORREO [email protected]
- LA INTRODUCCION VA SIN DISTORCION AUQNUE PUEDEN TOKARLA COMO
ELLOS LO HACEN EN VIVO, ES DECIR CON DISTORCION PERO CON PALM METE


ACORDES PARA GUITARRA

PIANO UKELELE
C5
G5
A5
F5


COMENTARIOS

Aún no hay comentarios,

¡escribe el primero!

Escribe una pregunta, duda o comentario sobre esta canción, te responderemos a la brevedad.

Las más tocadas de I.R.A.

Toca una Canción al Azar de I.R.A.
C5
G5
A5
F5