Decadas de libertad (Acordes)

I.R.A.

Subida por Debra

Compartir


Cambiar Cifrado
Americano Latino

Cambiar Tonalidad
-1 +1
Imprimir FAQ
+A
-A

Texto

Desplazamiento

Transportador

Color de Fondo

Archivos

-A
+A
VERSO:
E|-----------------------------------------|
B|-----------------------------------------|
G|----------77-555555--77777777------------| X4
D|-77777777-77-555555--77777777-77-555555--|
A|-77777777-55-333333--55555555-77-555555--|
E|-55555555---------------------55-333333--|

Por que tanto tiempo paso
Y por no darnos la razon
Nos decian descabellados
Muchos trataron de alejarnos
De algo que significa
Para nosotros demasiado
Y cuando en la calle me ves
Y preguntas si aun sigo igual
Yo te contesto no he cambiado
El que cambiaste fuiste vos
Tu espiritu se envejecio
Yo aun pienso descabellado

INTERMEDIO:
E|--------------------------------------|
B|---------8-9-9s11v----------7-6-7-----|
G|-9-9-9-9------------7-7-7-7-------6v--|
D|--------------------------------------|
A|--------------------------------------|
E|--------------------------------------|

E|---------------------------------------------|
B|---------8-9-9s11v---------------------------|
G|-9-9-9-9------------7-7-7-7-9-10-9-10--10s12-|
D|---------------------------------------------|
A|---------------------------------------------|
E|---------------------------------------------|

VERSO:
E|-----------------------------------------|
B|-----------------------------------------|
G|----------77-555555--77777777------------|
D|-77777777-77-555555--77777777-77-555555--| X4
A|-77777777-55-333333--55555555-77-555555--|
E|-55555555---------------------55-333333--|

Nada me satisface mas
Que ser el mismo de siempre
Hasta el final de los dias
Los que preguntan por que yo
Nunca cambie la musica
Pues la respuesta es muy sencilla
Prefiero no tener patron
Ni diez seguros de vida
Ni una monotona oficina
Decadas de libertad
No las confundas con vagar
Yo me guerreo esta vida

INTERMEDIO:
E|--------------------------------------|
B|---------8-9-9s11v----------7-6-7-----|
G|-9-9-9-9------------7-7-7-7-------6v--|
D|--------------------------------------|
A|--------------------------------------|
E|--------------------------------------|

E|---------------------------------------------|
B|---------8-9-9s11v---------------------------|
G|-9-9-9-9------------7-7-7-7-9-10-9-10--10s12-|
D|---------------------------------------------|
A|---------------------------------------------|
E|---------------------------------------------|

VERSO:
E|-----------------------------------------|
B|-----------------------------------------|
G|----------77-555555--77777777------------|
D|-77777777-77-555555--77777777-77-555555--| X4
A|-77777777-55-333333--55555555-77-555555--|
E|-55555555---------------------55-333333--|

Por que tanto tiempo paso
Y por no darnos la razon
Nos decian descabellados
Muchos trataron de alejarnos
De algo que significa
Para nosotros demasiado
Prefiero no tener patron
Ni diez seguros de vida
Ni una monotona oficina
Decadas de libertad
No las confundas con vagar
Yo me guerreo esta vida

---------------------------
s = slide
v = vibrato


Video Clip de Decadas de libertad


ACORDES PARA GUITARRA

PIANO UKELELE


TOP 20: Las más tocadas de I.R.A.


Toca una Canción al Azar de I.R.A.

Acordes

Cerrar

03.54

x

48