Desatin
I.R.A.
Acordes

Subida por manu


Más Versiones
Ver. 2

Cambiar Cifrado
Americano Latino

Cambiar Tonalidad
-1 +1

Partir Pantalla Imprimir FAQ

+A
-A
INTRo:
E|--------------------------|
B|--------------------------|
G|-77-55-77-----------------|
D|-77-55-77-77-99-77-9999---| X2
A|-55-33-55-77-99-77-9999---|
E|----------55-77-55-7777---|

VERSO:
D5 C5 D5 A5
Siempre luchas de tu parte
B5 A5 B5
Sin importar la agresión
D5 C5 D5 A5
Esta es una guerra idiota
B5 A5 B5
Que no tiene mas razones
D5 C5 D5 A5
Que resentidos social
B5 A5 B5
Y parásito mortal
D5 C5 D5 A5
A ellos solo les importa
B5 A5 B5
Demostrarnos su maldad

CORO:
E|-----------------------------------------|
B|-----------------------------------------|
G|-----------7777-5555-----------7777-5555-|
D|-5555-7777-7777-5555-5555-7777-7777-5555-|
A|-5555-7777-5555-3333-5555-7777-5555-3333-|
E|-3333-5555-----------3333-5555-----------|

G5 A5 D5 C5
D5ESATIN,DESATIN,DESATIN,DESATIN
G5 A5
No son las mismas ideas
D5 C5
Pero estamos en la guerra
G5 A5
no hay que intimidar a nadie
D5 C5
Para saber lo que eres
G5 A5 D5 C5
DESATIN, DESATIN, DESATIN


VERSO:
D5 C5 D5 A5
Géneros con una causa
B5 A5 B5
No debemos destruirlos
D5 C5 D5 A5
Todos somos más que libres
B5 A5 B5
Y no queremos herirlos
D5 C5 D5 A5
Lo que pasa es que hay personas
B5 A5 B5
Que no saben su ignorancia
D5 C5 D5 A5
Y también hay reprimidos
B5 A5 B5
Son flagelos destruidos
D5 C5 D5 A5
Los que no saben del tema
B5 A5 B5
Siempre quieren discutir
D5 C5 D5 A5
Con razones poco justas
B5 A5 B5
Y argumentos fallecidos
D5 C5 D5 A5
Mentirosos ignorante
B5 A5 B5
Falso seguidor de ideas
D5 C5 D5 A5
Queremos nuestra estridencia
B5 A5 B5
Y no queremos problemas


CORO:
E|-----------------------------------------|
B|-----------------------------------------|
G|-----------7777-5555-----------7777-5555-|
D|-5555-7777-7777-5555-5555-7777-7777-5555-|
A|-5555-7777-5555-3333-5555-7777-5555-3333-|
E|-3333-5555-----------3333-5555-----------|

G5 A5 D5 C5
D5ESATIN,DESATIN,DESATIN,DESATIN
G5 A5
No son las mismas ideas
D5 C5
Pero estamos en la guerra
G5 A5
no hay que intimidar a nadie
D5 C5
Para saber lo que eres
G5 A5 D5
DESATIN, DESATIN, DESATIN

NOTA FINAL:
E|-------|
B|-------|
G|-------|
D|---7---|
A|---7---|
E|---5---|

ACORDES:
E|----X----X----X----X----X----|
B|----X----X----X----X----X----|
G|----7----5----X----X----X----|
D|----7----5----7----9----5----|
A|----5----3----7----9----5----|
E|----X----X----5----7----3----|
D5 C5 A5 B5 G5

Dudas, coorecciones o comentarios al correo [email protected]


ACORDES PARA GUITARRA

PIANO UKELELE
D5
C5
A5
B5
G5


COMENTARIOS

Aún no hay comentarios,

¡escribe el primero!

Escribe una pregunta, duda o comentario sobre esta canción, te responderemos a la brevedad.

Las más tocadas de I.R.A.

Toca una Canción al Azar de I.R.A.
D5
C5
A5
B5
G5