El camino de la humanidad
I.R.A.
Acordes

Subida por Abdielguitarapro


Más Versiones
Ver. 2

Cambiar Cifrado
Americano Latino

Cambiar Tonalidad
-1 +1

Partir Pantalla Imprimir FAQ

+A
-A
INTRO:
E|--------------------------------------|
B|--------------------------------------|
G|----------66666666-64-444444----------|
D|-44444444-66666666-64-444444-44444444-|
A|-44444444-44444444-42-222222-44444444-|
E|-22222222--------------------22222222-|

F#5 C#5
Nadie puede recordar
B5 F#5
Cual era el camino de la humanidad
C#5
Quien podría explicar
B5 F#5
Cual es el sentido de esta realidad
C#5
Una absurda lucha por perder o por ganar
B5 F#5
Donde la vida y la muerte han dejado de importar
C#5
Hipnótica forma de dormir o despertar
B5 F#5
Nuestros días nuestras noches también acabaran
C#5
Siempre confundiendo lo que debemos buscar
B5 F#5
si no hay premios o castigos no podemos caminar

F#5 C#5
Nadie puede recordar
B5 F#5
Cual era el camino de la humanidad
C#5
Quien podría explicar
B5 F#5
Cual es el sentido de esta realidad

F#5 C#5
Extraña manera de sentir y de pensar
B5 F#5
Flores, jaulas, niños, armas nos parece todo igual
C#5
Inseguridad, dolor, temores y tristezas
B5 F#5
Falta decisión para revocar la condena

F#5 C#5
Quien podría explicar
B5 F#5
Cual es el sentido de esta realidad
F#5 C#5
Nadie puede recordar
B5 F#5
Cual era el camino de la humanidad

FINAL:
E|---------------------------|
B|---------------------------|
G|----------66666666---------|
D|-44444444-66666666-4-X-4~~-|
A|-44444444-44444444-4-X-4~~-|
E|-22222222----------2-X-2~~-|

E|-----X-----X-----X-----|
B|-----X-----X-----X-----|
G|-----4-----X-----6-----|
D|-----4-----4-----6-----|
A|-----2-----4-----4-----|
E|-----X-----2-----X-----|
B5 F#5 C#5


ACORDES PARA GUITARRA

PIANO UKELELE
F#5
C#5
B5


COMENTARIOS

Aún no hay comentarios,

¡escribe el primero!

Escribe una pregunta, duda o comentario sobre esta canción, te responderemos a la brevedad.

Las más tocadas de I.R.A.

Toca una Canción al Azar de I.R.A.
F#5
C#5
B5