Eso no nos detendrá
I.R.A.
Acordes

Subida por mapamar


Más Versiones
Ver. 2 Ver. 3

Cambiar Cifrado
Americano Latino

Cambiar Tonalidad
-1 +1

Partir Pantalla Imprimir FAQ

+A
-A
Si se puede apollar lo de colombia. PUNK.



INTRO:
F5 C#5 F5 C#5 G#5 C#5
E|-----------------| |------------------------------------|
B|-----------------| |------------------------------------|
G|---------6-6-6-6-| |---------6-6-6-6--------------------|
D|-4-4-4-4-6-6-6-6-| |-4-4-4-4-6-6-6-6-6-6-6-6-11-11-11-11| X2
A|-4-4-4-4-4-4-4-4-| |-4-4-4-4-4-4-4-4-6-6-6-6-11-11-11-11|
E|-2-2-2-2---------| |-2-2-2-2---------4-4-4-4-9--9--9--9-|


F5 C#5
Es una forma de vida
G#5 C#5
Que hicimos y hacemos realidad
F5 C#5
no nos supongamos en ese plan amor
G#5 C#5
Ya que saca algo si esta toda
F5 C#5
nos golpiando vamos olvidando
G#5 C#5
con ideas esforzando
F5 C#5
y si los recursos lo desean eso no nos detendra


Coro
F5 C#5
Eso no nos detendra
G#5 C#5
Eso no nos detendra
F5 C#5 G#5 C#5
F5 C#5 G#5 C#5

Intermedio

F5 C#5 G#
E|------------------------------------|
B|------------------------------------|
G|---------6-6-6-6--------------------|
D|-4-4-4-4-6-6-6-6-6-6-6-6-11-11-11-11| X2
A|-4-4-4-4-4-4-4-4-6-6-6-6-11-11-11-11|
E|-2-2-2-2---------4-4-4-4-9--9--9--9-|

F5 C#5
Ya vaciles y acrilica
G# C#5
y mucha màs destructiva
F5 C#5
Eso no, lo nuestro es amor
G#5 C#5
Hay estoy sin amar
F5 C#5
El motivo es seguir
G#5 C#5
Cielos los mismas del cenar
F5 C#5
y si esto es tu idea eso no nos detendra


Coro
F5 C#5
Eso no nos detendra
G# C#5
Eso no nos detendra


Intermedio final

F5 C#5 G#
E|------------------------------------|
B|------------------------------------|
G|---------6-6-6-6--------------------|
D|-4-4-4-4-6-6-6-6-6-6-6-6-11-11-11-11| X2
A|-4-4-4-4-4-4-4-4-6-6-6-6-11-11-11-11|
E|-2-2-2-2---------4-4-4-4-9--9--9--9-|


la letra tiene unos pequeños errores
pero los acordes estan bièn formulados
[email protected]
gracias a Diego q hizo esto posible.


ACORDES PARA GUITARRA

PIANO UKELELE
F5
C#5
G#5
G#


COMENTARIOS

Aún no hay comentarios,

¡escribe el primero!

Escribe una pregunta, duda o comentario sobre esta canción, te responderemos a la brevedad.

Las más tocadas de I.R.A.

Toca una Canción al Azar de I.R.A.
F5
C#5
G#5
G#