Este es el infierno
I.R.A.
Acordes



Más Versiones de esta Canción | Ver. 2 |

Cifrado |Americano| - |Latino|

Cambiar Tonalidad
BAJAR UN TONO BAJAR UN SEMI-TONO SUBIR UN SEMI-TONO SUBIR UN TONO PARTIR PANTALLA EN VERTICAL PARTIR PANTALLA EN VERTICAL ¡Ayuda!
+A
-A
|====================|
|Este es el infierno | tabulada por Cometin
|Por I.R.A. | www.LaIzkieda.tk3.net
|Epidemia | [email protected]
|====================|
ParA Mi cOnceptO Una de las Mejores Kanciones del ePiDeMiA

Ecualisaxion:
En general I.R.A. kuadra el ekualisador similar a este w
La distorxion en 7,el treble en 8,el mid en 6,el bass en 2 w
Afinacion: EbGDAE w
Es mas recomendable tokarla en kintas .
L
intro de bajo.... y a
INTRO Y VERSOS I
E A C G z
|-------------------------------------| k
|-------------------------------------| i
|--9-9-9-9---------5-5-5-5------------| e
|--9-9-9-9-7-7-7-7-5-5-5-5-5-5-5-5----| r
|--7-7-7-7-7-7-7-7-3-3-3-3-5-5-5-5----| d
|----------5-5-5-5---------3-3-3-3----| a
.
Se suponía que este planeta t
Era el mejor de este sistema k
Ahora me encuentro que es un infierno 3
Donde se viven tormento y pena .
Corrupción, inmoralidad pan de cada día N
Enfermedades, calamidades y sufrimiento e
Rencor y odio para variar esta pesadilla t
Y la injusticia que nunca falta en este cuento

CORO?:

E A C B C D
|-------------------------------------------| T
|-------------------------------------------| e
|--9-9-9-9---------5-5-5-5-5-5-4-4-4-5-7----| x
|--9-9-9-9-7-7-7-7-5-5-5-5-5-5-4-4-4-5-7----| t
|--7-7-7-7-7-7-7-7-3-3-3-3-3-3-2-2-2-3-5----| o
|----------5-5-5-5--------------------------| s

Este infierno nunca va a parar A
Tengo mil razones para sospechar n
¡¡¡ Tus ideas tienen resistencia !!! a
¡¡¡ No las cambies nunca por una apariencia !!! r
k
PUENTE: i
s
E A C C G t
|--------------------------------------| a
|--------------------------------------| s
|--9-9-9-9---------5---5---------------|
|--9-9-9-9-7-7-7-7-5---5----5-5-5-5----| g
|--7-7-7-7-7-7-7-7-3---3----5-5-5-5----| r
|----------5-5-5-5----------3-3-3-3----|x2 a
t
VERSO2: i
s
E A C G !
|-------------------------------------| !
|-------------------------------------|
|--9-9-9-9---------5-5-5-5------------|
|--9-9-9-9-7-7-7-7-5-5-5-5-5-5-5-5----|
|--7-7-7-7-7-7-7-7-3-3-3-3-5-5-5-5----|
|----------5-5-5-5---------3-3-3-3----|

En un principio un paraíso y todo era naturaleza
La ciencia humana con su progreso
lo convirtió en campo de tristeza
la impunidad de gala va a posar
la contaminación me va a mutar
el pánico nos tiene consumidos
la bomba nuclear me quiere destruido.

Coro , puente y tremulo a lo loco

Eso es todo,si la tab tiene errores o solo te apetece escribir
lo puedes hacer a [email protected]
Visite Mi site www.LaIzkierda.tk3.net
Cometin_


Recuerda que #AcordesWeb.com se mantiene en línea gracias al aporte de nuestros anunciantes.


Toca una Canción al Azar de I.R.A.



ACORDES

GUITARRA UKELELE
E
A
C
G
B
D



COMENTARIOS

Aún no hay comentarios,

¡escribe el primero!

Escribe un comentario o pregunta sobre esta canción




Más canciones de I.R.A.

  • Vivir para esto
  • Correnteza
  • Flerte Fatal
  • Pegue Essa Arma
  • Entre Seus Rins
  • Logo de Cara
  • Sin Patria
  • Casa de Papel
  • Los Ochentas
  • El Garaje
  • Ciganos
  • Crisis
  • Núcleo Base
  • No Universo Dos Seus Olhos
  • Como Os Ponteiros de Um Rélogio
  • Nas Ruas
  • Bebendo Vinho
  • El Viaje
  • Saída
  • Firmes
  • Siguiente

    E
    A
    C
    G
    B
    D

    Nuestro servidor se demoró 0.03 segundos en generar esta página. Eso fue realmente muy rápido!