Eu Quero Sempre Mais
I.R.A.
Acordes

Subida por jomabual
Álbum: 7 ( 1996)



Otras Versiones
Ver. 2 Ver. 3

Cambiar Cifrado
Americano Latino

Cambiar Tonalidad
-1 +1

Partir Pantalla Imprimir FAQ

+A
-A
LETRA CON ACORDES
Intro 2x: C  Am7  G

Solo Intro:

Parte 1

E|------------------------------------------------------|
B|------------------------------------------------------|
G|------------------------------------------------------|
D|-2-2---0-2-0----2-2---0-2-0--------0-2-0--------------|
A|-----3-------3------3-------3--0-3-------3-0h2--------|
E|------------------------------------------------------|

Parte 2

E|------------------------------------------------------|
B|-1-0-1-3-1-0--1-0-1-3-1-0--1-0-1-3-1-0----------------|
G|------------------------------------------------------|
D|------------------------------------------------------|
A|------------------------------------------------------|
E|------------------------------------------------------|

Primeira Parte ? Primeira Estrofe:

C
A minha vida
F9 G9
Eu preciso mudar todo dia
C7M
Pra escapar
F9
Da rotina dos meus desejos
G9
Por seus beijos

Primeira Parte ? Primeira Estrofe:

Parte 1

E|------------------------------------------|
B|------------------------------------------|
G|-0-0-0-0-0-0-0-0--0-0-0-0-0-0-0-0---------|
D|-2-2-2-2-2-2-2-2--2-2-2-2-2-2-2-2---------|
A|-3-3-3-3-3-3-3-3--3-3-3-3-3-3-3-3---------|
E|------------------------------------------|
? ? ? ? ? ? ? ? ? ? ? ? ? ? ? ?

Parte 2

F9 G9
E|------------------------------------------|
B|---1-----1--------3-----3-----------------|
G|-----0-----0--------0-----0---------------|
D|-3-----3-----3--5-----5-----5-------------|
A|------------------------------------------|
E|------------------------------------------|

Parte 3

C7M
E|------------------------------------------|
B|---0-----0--------0-----0-----------------|
G|-----0-----0--------0-----0---------------|
D|-------2-----2--------2-----2-------------|
A|-3--------------3-------------------------|
E|------------------------------------------|

Parte 4

F9 G9
E|---------3--------------5-----------------|
B|---1-------1------3-------3---------------|
G|-----0--------------0---------------------|
D|-3-----3-----3--5-----5-----5-------------|
A|------------------------------------------|
E|------------------------------------------|

Primeira Parte ? Segunda Estrofe:

C
E os meus sonhos

Eu procuro acordar
F9 G9
E perseguir meus sonhos
C7M
Mas a realidade que vem depois
F9 G9
Não é bem aquela que planejei


Primeira Parte ? Segunda Estrofe:

Parte 1

E|------------------------------------------|
B|------------------------------------------|
G|-0-0-0-0-0-0-0-0--0-0-0-0-0-0-0-0---------|
D|-2-2-2-2-2-2-2-2--2-2-2-2-2-2-2-2---------|
A|-3-3-3-3-3-3-3-3--3-3-3-3-3-3-3-3---------|
E|------------------------------------------|
? ? ? ? ? ? ? ? ? ? ? ? ? ? ? ?

Parte 2

F9 G9
E|------------------------------------------|
B|---1-----1--------3-----3-----------------|
G|-----0-----0--------0-----0---------------|
D|-3-----3-----3--5-----5-----5-------------|
A|------------------------------------------|
E|------------------------------------------|

Parte 3

C7M
E|------------------------------------------|
B|---0-----0--------0-----0-----------------|
G|-----0-----0--------0-----0---------------|
D|-------2-----2--------2-----2-------------|
A|-3--------------3-------------------------|
E|------------------------------------------|

Parte 4

F9 G9
E|---------3--------------5-----------------|
B|---1-------1------3-----------------------|
G|-----0--------------0---------------------|
D|-3-----3-----3--5-----5-------------------|
A|------------------------------------------|
E|------------------------------------------|

Refrão:

F9 G9
Eu quero sempre mais
F9 G9
Eu quero sempre mais
F9 G9
Eu espero sempre mais

De ti

Repete Intro 2x: C Am7 G

Segunda Parte:

C
Por isso hoje

Estou tão triste
F9
Por que querer está
G9 C7M
Tão longe de poder
F9
E quem eu quero
G9
Está tão longe

Refrão:

C
Longe de mim

F9 G9
Longe de mim
F9 G9
Longe de mim
F9 G9
Longe de mim

Base Solo 4x: C Am7 G

Solo:

Parte 1

E|------------------------------------------------------|
B|-------------8-------8--------------------------------|
G|-7-7-7/9-9-9---9-7-9---9-97-7-7/9-7-5----------------|
D|---------------------------------------7--------------|
A|------------------------------------------------------|
E|------------------------------------------------------|

Parte 2

E|--------------------------8---------------------------|
B|-6-5-----------5-6-8-8/10-----------------------------|
G|-----7-5-4-5-7----------------------------------------|
D|------------------------------------------------------|
A|------------------------------------------------------|
E|------------------------------------------------------|

Parte 3

E|--------8------8------8-------8-10/12-10-8------------|
B|-8-8h10---8h10---8h10-8--8h10-------------------------|
G|------------------------------------------------------|
D|------------------------------------------------------|
A|------------------------------------------------------|
E|------------------------------------------------------|

Parte 4

E|-12-12-12-10-10-10-8-8-8-7-7-7------------------------|
B|-------------------------------10-10-10---------------|
G|----------------------------------------8-8-8---------|
D|----------------------------------------------6-6-6---|
A|------------------------------------------------------|
E|------------------------------------------------------|

Parte 5

E|-5-5-3-5-5-5--3/5-5-x-5-5--3/5-5-x-3-3-3--------------|
B|-5-5-3-5-5-5--3/5-5-x-5-5--3/5-5-x-3-3-3--------------|
G|------------------------------------------------------|
D|------------------------------------------------------|
A|------------------------------------------------------|
E|------------------------------------------------------|
? ? ? ? ? ? ? ? ? ? ? ? ? ? ? ? ?

Parte 6

E|-12-12-12-12-12--10-10-10--8-8-7-7--------------------|
B|-10-10-10-10-10---8--8--8----------10-10-8------------|
G|------------------------------------------------------|
D|------------------------------------------------------|
A|------------------------------------------------------|
E|------------------------------------------------------|
? ? ? ? ? ? ? ?

Parte 7

E|------------------------------------------------------|
B|-----8------------------------------------------------|
G|-7h9---9p7-5-7-5--------------------------------------|
D|-----------------7-5----------------------------------|
A|------------------------------------------------------|
E|------------------------------------------------------|

Primeira Parte ? Primeira Estrofe:

C
A minha vida
F9 G9
Eu preciso mudar todo dia
C7M
Pra escapar
F9
Da rotina dos meus desejos
G9
Por seus beijos

Primeira Parte ? Segunda Estrofe:

C
E os meus sonhos

Eu procuro acordar
F9 G9
E perseguir meus sonhos
C7M
Mas a realidade que vem depois
F9 G9
Não é bem aquela que planejei

Refrão:

F9 G9
Eu quero sempre mais
F9 G9
Eu quero sempre mais
F9 G9
Eu espero sempre mais

De ti

Repete Intro: C Am7 G

Segunda Parte:

C
Por isso hoje

Estou tão triste
F9
Por que querer está
G9 C7M
Tão longe de poder
F9
E quem eu quero
G9
Está tão longe

Refrão:

C
Longe de mim

F9 G9
Longe de mim
F9 G9
Longe de mim
F9 G9 C Am7 G
Longe de mim
C Am7 G
Longe de mim
C
Longe de mim

ACORDES PARA GUITARRA

PIANO UKELELE
C
Am7
G
F9
G9
Cmaj7



COMENTARIOS

Aún no hay comentarios,

¡escribe el primero!

Escribe un comentario o pregunta sobre esta canción


TOP 20: Las más tocadas de I.R.A.

Ver más

Toca una Canción al Azar de I.R.A.
C
Am7
G
F9
G9
Cmaj7

Nuestro servidor se demoró 0.04 segundos en generar esta página. Eso fue realmente muy rápido!