Firmes
I.R.A.
Acordes

Subida por Matucho


Más Versiones
Ver. 2

Cambiar Cifrado
Americano Latino

Cambiar Tonalidad
-1 +1

Partir Pantalla Imprimir FAQ

+A
-A
INTRO:
E|-----------------------|
B|-----------------------|
G|-----------------------|
D|-5-4-333333-5-4-333333-| X2
A|-5-4-333333-5-4-333333-|
E|-3-2-111111-3-2-111111-|

G5 F#5 F5
Seguimos firmes,
G5 F#5 F5
siempre marchando
G5 F#5 F5
primera línea
G5 F#5 F5
en el frente,
G5 F#5 F5
pisando fuerte
G5 F#5 F5
y desarmados
G5 F#5 F5
pacificando
G5 F#5 F5
y sin mente
G5 F#5 F5
hemos perdido
G5 F#5 F5
muchas batallas
G5 F#5 F5
mas no la guerra
G5 F#5 F5
ni el aguante ,
G5 F#5 F5
año tras año
G5 F#5 F5
y bien parados
G5 F#5 F5
no de rodillas
G5 F#5 F5
todos de pié


CORO:
A5 C5
!Firmes, firmes!
A5 C5
! firmes, firmes!
A5 C5
!firmes, firmes!
A5 C5
! firmessss!!

INTRO:
E|-----------------------|
B|-----------------------|
G|-----------------------|
D|-5-4-333333-5-4-333333-| X2
A|-5-4-333333-5-4-333333-|
E|-3-2-111111-3-2-111111-|


G5 F#5 F5
Nunca lloramos
G5 F#5 F5
por el pasado
G5 F#5 F5
siempre vivimos
G5 F#5 F5
del presente
G5 F#5 F5
y no esperamos
G5 F#5 F5
ningún futuro
G5 F#5 F5
de ilusiones
G5 F#5 F5
no se vive,
G5 F#5 F5
nuestra trinchera

es el sonido
G5 F#5 F5
los instrumentos
G5 F#5 F5
nos defienden
G5 F#5 F5
paso tras paso
G5 F#5 F5
siempre avanzando
G5 F#5 F5
batallón firme
G5 F#5 F5
nunca muere

CORO:
A5 C5
!Firmes, firmes!
A5 C5
! firmes, firmes!
A5 C5
!firmes, firmes!
A5 C5
! firmessss!!

FINAL:
E|-----------------|
B|-----------------|
G|-----------------|
D|-5-4-3---5-4-3---| X2
A|-5-4-3---5-4-3---|
E|-3-2-1---3-2-1---|


ACORDES:
E|--X---X---X---X---X--|
B|--X---X---X---X---X--|
G|--X---X---X---X---5--|
D|--3---5---4---7---5--|
A|--3---5---4---7---3--|
E|--1---3---2---5---X--|
F5 G5 F#5 A5 C5


ACORDES PARA GUITARRA

PIANO UKELELE
G5
F#5
F5
A5
C5


COMENTARIOS

Aún no hay comentarios,

¡escribe el primero!

Escribe una pregunta, duda o comentario sobre esta canción, te responderemos a la brevedad.

Las más tocadas de I.R.A.

Toca una Canción al Azar de I.R.A.
G5
F#5
F5
A5
C5