Harry Punker
I.R.A.
Acordes

Subida por kevin


Más Versiones
Ver. 2 Ver. 3

Cambiar Cifrado
Americano Latino

Cambiar Tonalidad
-1 +1

Partir Pantalla Imprimir FAQ

+A
-A
INTRO:
E|----------------|
B|----------------|
G|----------------| X2
D|-8--10----10/8--|
A|-6--8--8--8-/6--|
E|-------6--------|


D#5 F5 A#5
Nunca me he necesitado presentar
D#5 F5 A#5
porque yo soy harry punker
D#5 F5 A#5
caminando por las calles me verán
D#5 F5 A#5
harry a nadie se le esconde
D#5 F5 A#5
callejero desde mucho tiempo atrás
D#5 F5 A#5
aquí estoy haciendo vida
D#5 F5 A#5
y un tatuaje en una bota roída
D#5 F5 A#5
con el nombre de mi banda
D#5 F5 A#5
somos tres y hacemos mucha bulla
D#5 F5 A#5
en un sótano escondido
D#5 F5 A#5
como respuesta en la situación social
D#5 F5 A#5
donde harry esta metido


CORO:
D#5 G5 A#5
harry punker, es un pervetido
D#5 G5 A#5
harry punker, solo quiere repugnar
D#5 G5 A#5
harry punker, es un pervertido
D#5 G5 A#5
harry no se dejará encontrar

E|--------------------------|
B|--------------------------|
G|--------------------------|
D|-8888-10101010------------|X2
A|-6666-8-8-8-8--8888-8888--|
E|---------------6666-6666--|
|----------pm----------|

D#5 F5 A#5
Por la tarde siempre salgo sin humo
D#5 F5 A#5
con grabadora sonando
D#5 F5 A#5
casette de escorbuto y de ataque frontal
D#5 F5 A#5
aunque estén muy destemplados
D#5 F5 A#5
me encontrados otros crestudos por ahí
D#5 F5 A#5
nuestro puño hemos chocado
D#5 F5 A#5
los agentes de la noche vienen ya
D#5 F5 A#5
harry ten mucho cuidado
D#5 F5 A#5
no te vuelvas una torta de jamón
D#5 F5 A#5
porque querrán merendarte
D#5 F5 A#5
en la oscuridad mantienen hambrientos
D#5 F5 A#5
esperando degustarte


CORO:
D#5 G5 A#5
harry punker, es un pervetido
D#5 G5 A#5
harry punker, solo quiere repugnar
D#5 G5 A#5
harry punker, es un pervertido
D#5 G5 A#5
harry no se dejará encontrar

E|--------------------X2---|---|
B|-------------------------|---|
G|-------------------------|---|
D|-8888-10101010-----------|-8-|
A|-6666-8-8-8-8--8888-8888-|-8-|
E|---------------6666-6666-|-6-|
|----------pm----------|


E|--X----X----X----X--|
B|--X----X----X----X--|
G|--8----10---X----X--|
D|--8----10---8----5--|
A|--6----8----8----5--|
E|--X----X----6----3--|
D#5 F5 A#5 G5


ACORDES PARA GUITARRA

PIANO UKELELE
D#5
F5
A#5
G5


COMENTARIOS

Aún no hay comentarios,

¡escribe el primero!

Escribe una pregunta, duda o comentario sobre esta canción, te responderemos a la brevedad.

Las más tocadas de I.R.A.

Toca una Canción al Azar de I.R.A.
D#5
F5
A#5
G5