Jaulas Educativas
I.R.A.
Acordes

Subida por Alito


Más Versiones
Ver. 2 Ver. 3

Cambiar Cifrado
Americano Latino

Cambiar Tonalidad
-1 +1

Partir Pantalla Imprimir FAQ

+A
-A
apollen lo colombiano.                   SKATEROCK
[email protected]
() se deja el sonido


INTRO:
E|-------------| |-----------|
B|-------------| |-----------|
G|----------x3-| |-----------|
D|-7-5-5-5-5-5-| |-7-7-7-8-5-|
A|-7-5-5-5-5-5-| |-7-7-7-8-5-|
E|-5-3-3-3-3-3-| |-5-5-5-6-3-|

E|-------------| |----------------------|
B|----------x3-| |----------------------|
G|-------------| |----------------------|
D|-7-5-5-5-5-5-| |-7-7-7-8-5--7-7-7-8-5-|
A|-7-5-5-5-5-5-| |-7-7-7-8-5--7-7-7-8-5-|
E|-5-3-3-3-3-3-| |-5-5-5-6-3--5-5-5-6-3-|

B+8 G#5 A5 G5 G#5 F5
Cuando eramos si no resistia
B+8 G#5 A5 G5 G#5 F5
toda lacadena q se tiene
B+8 G#5 A5 G5 G#5 F5
una civilizacion exista
B+8 G#5 A5 G5 G#5 F5
q por nada se detiene(q por nada se detiene)
B+8 G#5 A5 G5 G#5 F5
una falza historia construida
B+8 G#5 A5 G5 G#5 F5
se han centrado en una patologia
B+8 G#5 A5 G5 G#5 F5
y cuando queramos reacion
B+8 G#5 A5 G5 G#5 F5
en la ahoguera podamos estar

CORO
C#5 A#5 G#5
No se nececita ser tan sabio
C#5 A#5 G#5
para saver lo Q esta pasando
C#5 A#5 G#5
cual sera la gran pedagojia
C#5 A#5 G#5 G5
d lo q nos estan enseñando

B+8 G#5 A5 G5 G#5 F5
Yo estare luchando y tu nunca me entiendes
B+8 G#5 A5 G5 G#5 F5
estare bien triste y despichado
B+8 G#5 A5 E5 C5 D5 C5
la del patrimonio de cultura
B+8 G#5 A5 E5 C5 D5 C5
ya queda atrapado en el pasado


CORO
C#5 A#5 G#5
No se nececita ser tan sabio
C#5 A#5 G#5
para saver lo Q esta pasando
C#5 A#5 G#5
cual sera la gran pedagojia
C#5 A#5 G#5 G5
d lo q nos estan enseñando


ACORDES

C#5 C5 B+8 E5 G5 F5 G#5 A#5 D5
E|-X--X--X---X--X--X-X---X---X-|
B|-X--X--X---X--X--X-X---X---X-|
A|-X--5--X---9--X--X-X---X---7-|
G|-11-5--10--9--5--4-6---8---7-|
D|-11-3--10--7--5--4-6---8---5-|
E|-9--X--8---X--3--2-4---6---X-|


LA LETRA NO ESTA MUY BUENA PERO SI ESCUCHAN EL TEMA SE
DEJARAN LLEVAR POR LOS ACORDES
SE LE AGRADESE A DIEGO
[email protected]


ACORDES PARA GUITARRA

PIANO UKELELE
G#5
A5
G5
F5
C#5
A#5
E5
C5
D5


COMENTARIOS

Aún no hay comentarios,

¡escribe el primero!

Escribe una pregunta, duda o comentario sobre esta canción, te responderemos a la brevedad.

Las más tocadas de I.R.A.

Toca una Canción al Azar de I.R.A.
G#5
A5
G5
F5
C#5
A#5
E5
C5
D5