Kaos
I.R.A.
Acordes

Subida por Ezequiel


Más Versiones
Ver. 2

Cambiar Cifrado
Americano Latino

Cambiar Tonalidad
-1 +1

Partir Pantalla Imprimir FAQ

+A
-A
TRASCRIPCIÒN POR:
Mauricio Parra([email protected])
Diego Velez([email protected])

KAOS
INTRO:
F5/G5 C5
E|-----------------------|
B|-----------------------|
G|-------------7-7-7-7-7-|
D|-4/5-5-5-5-5-7-7-7-7-7-| X4 VECES
A|-4/5-5-5-5-5-5-5-5-5-5-|
E|-2/3-3-3-3-3-----------|

F5/G5 C5
Marchamos desde hace rato tratando de pregonar
F5/G5 C5
al lado muchas bandas y personas de verdad
F5/G5 C5
reiteramos la grandesa con distinta palabra
F5/G5 C5
en ultima nos unimos lo importante es la vida

INTERMEDIO
F5/G5 C5
E|-----------------------|
B|-----------------------|
G|-------------7-7-7-7-7-|
D|-4/5-5-5-5-5-7-7-7-7-7-| X2 VECES
A|-4/5-5-5-5-5-5-5-5-5-5-|
E|-2/3-3-3-3-3-----------|

F5/G5 C5
lo q se hase con caracter llenados desequede
F5/G5 C5
por momentos no perese pero eso hasi sera
F5/G5 C5
cuando todos menos pienzan todo esto pasara
F5/G5 C5
despues nos daremos cuenta

F5/G5 C5
la conciencia ahora me dise no te puedes detener
F5/G5 C5
detecto mucha confianza no ambiciones el poder

INTERMEDIO
F5/G5 C5
E|-----------------------|
B|-----------------------|
G|-------------7-7-7-7-7-|
D|-4/5-5-5-5-5-7-7-7-7-7-| X2 VECES
A|-4/5-5-5-5-5-5-5-5-5-5-|
E|-2/3-3-3-3-3-----------|

F5/G5 C5
kaos bueno no agreciones kaos q no causara
F5/G5 C5
ninguna daño persona antes la liberara
F5/G5 C5
todos meresen no bien sensura no penzar
F5/G5 C5
en el kaos q vivimos no lo vamos a negar

INTERVALO FINAL

F5/G5 C5
E|-----------------------|
B|-----------------------|
G|-------------7-7-7-7-7-|
D|-4/5-5-5-5-5-7-7-7-7-7-| X2 VECES
A|-4/5-5-5-5-5-5-5-5-5-5-|
E|-2/3-3-3-3-3-----------|



ACORDES
F5/G5 C5 G5
E|----------|
B|----------|
G|------7---|
D|-4/5--7-5-|
A|-4/5--5-5-|
E|-2/3----3-|

Punk- I.R.A. Mauricio Parra([email protected])
Diego Velez([email protected])
Skaterock Punk


ACORDES PARA GUITARRA

PIANO UKELELE
C5
G5


COMENTARIOS

Aún no hay comentarios,

¡escribe el primero!

Escribe una pregunta, duda o comentario sobre esta canción, te responderemos a la brevedad.

Las más tocadas de I.R.A.

Toca una Canción al Azar de I.R.A.
C5
G5