La del cangu
I.R.A.
Acordes

Subida por Samuelmolina


Más Versiones
Ver. 2

Cambiar Cifrado
Americano Latino

Cambiar Tonalidad
-1 +1

Partir Pantalla Imprimir FAQ

+A
-A
CUALQUIER DUDA, INQUIETUD O CUESTIÓN POR EL ESTILO
MI CORREO ES [email protected] (AGOSTO 2012)


One sk8board¡¡¡
E|---------------------||-------------------|
B|---------------------||-------------------|
G|-7777-5555-----------||-7----5---4--------|
D|-7777-5555-555555555-||------------7--5---| x4
A|-5555-3333-555555555-||-------------------|
E|-----------333333333-||-------------------|
(Guitarra 1) (Guitarra 2)

D5 C5 G5 D5 C5 G5
Se está poniendo de noche,mañana no va llegar y no amanecerá,
D5 C5 G5 D5 C5 G5
tu cuerpo no siente frió por que tu almas se ríe,ella no sabe llorar,
D5 C5 G5 D5 C5 G5
nunca nada te detuvo,la calle fue cómplice pa´tu sueños alcanzar
D5 C5 G5 D5 C5 G5
y aunque todo es prohibido pero la prohibición es lo que te gustaba.
D5 C5 G5 D5 C5 G5
El poder está en la mente esto es pura diversión nunca querías parar.
D5 C5 G5 D5 C5 G5
El que no arriesga no consigue, vencer los obstáculos que salen al caminar.

E|-------------------------------------|
B|-------------------------------------|
G|----------55555555-7777777777777777--|
D|-55555555-55555555-7777777777777777--|
A|-55555555-33333333-5555555555555555--|
E|-33333333----------------------------|

CORO:
G5 C5 D5 C5 G5
Que rápido que viviste mejor vida te esperara, nunca te podremos olvidar,
C5 D5 C5 G5
morir jóven, cumpliste tu misión acá,nada lo podrá explicar,
C5 D5 C5 G5
aquí quedo para siempre el eco de tu sonrisa que no dejara de resonar
C5 D5 C5 G5
que me enseño a comprender que la vida viene y se va.
D5 C5 G5
Nadie vive por la eternidad (X3)

E|---------------------|
B|---------------------|
G|-7777-5555-----------|
D|-7777-5555-555555555-|
A|-5555-3333-555555555-|
E|-----------333333333-|


D5 C5 G5 D5 C5 G5
La brisa sopla en tu cara trayendo grandes retos y mucha velocidad,
D5 C5 G5 D5 C5 G5
con los buenos camaradas sonriendo por todo el dolor se pasara,
D5 C5 G5 D5 C5 G5
es una forma de vida con la adrenalina al cien así es mas romántica,
D5 C5 G5 D5 C5 G5
en la jungla de cemento todo puede suceder y eso no te va a azarar¡¡¡
D5 C5 G5 D5 C5 G5
donde quiera que hayas ido nos veremos de nuevo todos vamos para allá
D5 C5 G5 D5 C5 G5
pa´que sigamos riendo y volver a estrechar la mano de una amistad

E|-------------------------------------|
B|-------------------------------------|
G|----------55555555-77777777--7-5-4---|
D|-55555555-55555555-77777777--------7-|
A|-55555555-33333333-55555555----------|
E|-33333333----------------------------|


CORO:
G5 C5 D5 C5 G5
Que rápido que viviste mejor vida te esperara, nunca te podremos olvidar,
C5 D5 C5 G5
morir jóven, cumpliste tu misión acá,nada lo podrá explicar,
C5 D5 C5 G5
aquí quedo para siempre el eco de tu sonrisa que no dejara de resonar
C5 D5
que me enseño a comprender que la vida viene y se va.
D5 C5 G5
Nadie vive por la eternidad



ACORDES:
E|---X-----X-----X---|
B|---X-----X-----X---|
G|---7-----5-----X---|
D|---7-----5-----5---|
A|---5-----3-----5---|
E|---X-----X-----3---|
D5 C5 G5


ACORDES PARA GUITARRA

PIANO UKELELE
D5
C5
G5


COMENTARIOS

Aún no hay comentarios,

¡escribe el primero!

Escribe una pregunta, duda o comentario sobre esta canción, te responderemos a la brevedad.

Las más tocadas de I.R.A.

Toca una Canción al Azar de I.R.A.
D5
C5
G5