Maldita Sea (Acordes)

I.R.A.

Subida por cvilla

Compartir


Cambiar Cifrado
Americano Latino

Cambiar Tonalidad
-1 +1
Imprimir FAQ
+A
-A

Texto

Desplazamiento

Transportador

Color de Fondo

Archivos

-A
+A
INTRO:
E|-------------------------------------|
B|-------------------------------------|
G|-44444444----------44444444----------|
D|-44444444-5-777777-44444444-5-777777-|
A|-22222222-5-777777-22222222-5-777777-|
E|----------3-555555----------3-555555-|

VERSO:
E|------------------------------------------------------|
B|------------------------------------------------------|
G|-4/666-4/666----------------4/666-4/666---------------|
D|-4/666-4/666-555555-777777--4/666-4/666-555555-777777-| X3
A|-2/444-2/444-555555-777777--2/444-2/444-555555-777777-|
E|-------------333333-555555--------------333333-555555-|

B5/C#5       B5/C#5     G5   A5
Brutal es el horror que nos alimenta
B5/C#5     B5/C#5    G5    A5
Al ver la decadencia de este planeta
B5/C#5       B5/C#5   G5   A5
Que acaba con la risa sin ilusiones
B5/C#5       B5/C#5       G5   A5
Armado hasta los dientes y sin canciones
B5/C#5    B5/C#5     G5   A5
Total tu energía es algo al menos
B5/C#5     B5/C#5    G5    A5
Al lado de este odio que les tenemos


CORO:
E|-----------------------------------------|
B|-----------------------------------------|
G|-44444444------------44444444------------| X2
D|-44444444-5555-7777--44444444-5555-7777--|
A|-22222222-5555-7777--22222222-5555-7777--|
E|----------3333-5555-----------3333-5555--|

B5 G5  A5
   Maldita sea
B5 G5  A5
   eso no es cierto
B5 G5  A5
   Maldita sea
B5 G5  A5
   que desconcierto

VERSO:
E|------------------------------------------------------|
B|------------------------------------------------------|
G|-4/666-4/666----------------4/666-4/666---------------|
D|-4/666-4/666-555555-777777--4/666-4/666-555555-777777-| X3
A|-2/444-2/444-555555-777777--2/444-2/444-555555-777777-|
E|-------------333333-555555--------------333333-555555-|

B5/C#5     B5/C#5  G5   A5
Aferrate a tu idea sin importarte
B5/C#5       B5/C#5   G5   A5
Sabiendo que por ella van a apartarte
B5/C#5    B5/C#5  G5   A5
La música expresa esas verdades
B5/C#5     B5/C#5   G5   A5
Que atacan ese odio y falsedades
B5/C#5   B5/C#5  G5     A5
Total tu energía es algo al menos
B5/C#5     B5/C#5   G5   A5
Al lado de ese odio que les tenemos.


CORO:
E|-----------------------------------------|
B|-----------------------------------------|
G|-44444444------------44444444------------| X2
D|-44444444-5555-7777--44444444-5555-7777--|
A|-22222222-5555-7777--22222222-5555-7777--|
E|----------3333-5555-----------3333-5555--|

B5 G5  A5
   Maldita sea
B5 G5  A5
   eso no es cierto
B5 G5  A5
   Maldita sea
B5 G5  A5~~
   que desconcierto

ACORDES:
E|-----X-----X-----X-----X-----|
B|-----X-----X-----X-----X-----|
G|-----4-----X-----X-----6-----|
D|-----4-----5-----7-----6-----|
A|-----2-----5-----7-----4-----|
E|-----X-----3-----5-----X-----|
       B5    G5    A5   C#5


Video Clip de Maldita Sea


ACORDES PARA GUITARRA

PIANO UKELELE
G5
A5
B5
A5
C#5


TOP 20: Las más tocadas de I.R.A.


Toca una Canción al Azar de I.R.A.

Acordes

Cerrar
G5
A5
B5
A5
C#5

07.22

x

69