Mártires
I.R.A.
Acordes

Subida por OnesLopez
Álbum: Guerreros clandestinos ( 2001)


Más Versiones
Ver. 2

HERRAMIENTAS

Cambiar Cifrado
Americano Latino

Cambiar Tonalidad
-1 +1

Partir Pantalla Imprimir FAQ

Ver solo la LETRA

+A
-A

LETRA CON ACORDES

¿Tu Guitarra esta Afinada? PRUEBA NUESTRO NUEVO AFINADOR

E|--------------------|--------------------|
B|---------------X3---|--------------------|
G|------8888----------|------8888----------|
D|-6666-8888-88888888-|-6666-8888-8~~~~~~--|
A|-6666-6666-88888888-|-6666-6666-8~~~~~~--|
E|-4444------66666666-|-4444------6~~~~~~--|


G#5 D#5 A#5
Asi mismo ha pasado siempre Por que sera
G#5 D#5 A#5
Se necesitan las tragedias Para pensar
G#5 D#5 A#5
Siempre tiene que morir alguien
G#5 D#5 A#5~~
No hay otra forma de enseñar
G#5 D#5 A#5
No hay mas maneras de aprenderlo
G#5 D#5 A#5
Alguien la tiene que pagar
G#5 D#5 A#5
Asi mismo ha pasado siempre Por que sera
G#5 D#5 A#5~~
Necesitamos siempre un martir Para escuchar

F5 D#5 A#5
Necesitamos siempre un martir Para escuchar
F5 D#5
De dos mil años o dos dias atrás
A#5
Siempre hay un martir
F5 D#5
Sea maestro o un mendigo
A#5
Siempre hay un martir
F5 D#5
Si muere en África o en tu callejón
A#5
Siempre hay un martir



E|--------------------|
B|---------------X2---|
G|------8888----------|
D|-6666-8888-88888888-|
A|-6666-6666-88888888-|
E|-4444------66666666-|

G#5 D#5 A#5
Al poco tiempo lo olvidamos Por que sera
G#5 D#5 A#5~~
Necesitamos siempre sangre Para escuchar
G#5 D#5 A#5
Esque nunca lo entenderemos
G#5 D#5 A#5
Es que esto nunca va a parar
G#5 D#5 A#5
Por que llevamos siempre a cuestas
G#5 D#5 A#5~~
La sangra de esta humanidad

E|----------------------------|
B|----------------------------|
G|----------88888-------------|
D|-10101010-88888-8888888888--|
A|-10101010-66666-8888888888--|
E|-8-8-8-8--------6666666666--|

F5 D#5
De dos mil años o dos dias atrás
A#5
Siempre hay un martir
F5 D#5
Sea maestro o un mendigo
A#5
Siempre hay un martir
F5 D#5
Si muere en África o en tu callejón
A#5
Siempre hay un martir

FINAL:
E|--------------------|------------------------|
B|--------------------|------------------------|
G|------8888----------|------8888--------------|
D|-6666-8888-88888888-|-6666-8888-8~~~~~~--8---|
A|-6666-6666-88888888-|-6666-6666-8~~~~~~--8---|
E|-4444------66666666-|-4444------6~~~~~~--6---|

ACORDES:
E|-----X-----X-----X-----X-----|
B|-----X-----X-----X-----X-----| ~~ = LET RING (DEJAR SONANDO)
G|-----X-----8-----X-----10----|
D|-----6-----8-----8-----10----|
A|-----6-----6-----8-----8-----|
E|-----4-----X-----6-----X-----|
G#5 D#5 A#5 F5

////////////////// ¿Te Animas? Sube una canción a este sitio. //////////////////

ACORDES PARA GUITARRA

PIANO UKELELE
G#5
D#5
A#5
F5


COMENTARIOS

Aún no hay comentarios,

¡escribe el primero!

Escribe una pregunta, duda o comentario sobre esta canción, te responderemos a la brevedad.

Las canciones más tocadas de I.R.A.

Toca una Canción al Azar de I.R.A.
G#5
D#5
A#5
F5

07.49


Nuestro servidor se demoró 0.23 segundos en generar esta página. Eso fue realmente muy rápido!