Mi punk amor
I.R.A.
Acordes

Subida por verache


Más Versiones
Ver. 2 Ver. 3

Cambiar Cifrado
Americano Latino

Cambiar Tonalidad
-1 +1

Partir Pantalla Imprimir FAQ

+A
-A
Afinación: EBGDAE  (AFINACIÓN NORMAL)
tokarla en kintas


Intro:
D A G D D G A D



D A G D
eres eres mi punk amor
D G A D
mi sucio amor mi punk amor (x2)



D D D A G D


D D
la tarde ke te vi senti el rechazo
D G A D
y fueron tus ojos ke me hipnotizaron
D D
basto una mirada para enamorarme
D A G D
desde ese mismo instante esa fue mi obsesion
D D
solo pensaba en ti kasi todo el tiempo
D G A D
por ke tu linda kara a mi me transformo
D D
y yo ke decia ke no existia el amor
D A G D
pero desde ese dia kede kallado



D A G D
eres eres mi punk amor
D G A D
mi sucio amor mi punk amor (x2)



SE REPITE TODO




Punteo: (SE TOCA EN ELCORO)

1|-----------------------------------------------------------------------|
2|-----------------------------------------------------------------------|
3|--7-7-77---------------------7-7-77---7-7-77---------------------------|
4|----------7-7-77----5-5-55---------------------5-5-55---7-7-77---------|
5|-----------------------------------------------------------------------|
6|-----------------------------------------------------------------------|




ASI SE TOCA EN KINTAS


1|----------|
2|----------|
3|----7-----| D
4|----7-----|
5|----5-----|
6|----------|


1|----------|
2|----------|
3|----------|
4|----7-----| A
5|----7-----|
6|----5-----|


1|----------|
2|----------|
3|----------|
4|----5-----| G
5|----5-----|
6|----3-----|



.....DUDAS COMENTARIOS....


facebook--------- http://www.facebook.com/NEMOPUNKROCKANDROLERO

CORREO----------- [email protected]


ACORDES PARA GUITARRA

PIANO UKELELE
D
A
G


COMENTARIOS

Aún no hay comentarios,

¡escribe el primero!

Escribe una pregunta, duda o comentario sobre esta canción, te responderemos a la brevedad.

Las más tocadas de I.R.A.

Toca una Canción al Azar de I.R.A.
D
A
G