Neurona
I.R.A.
Acordes

Subida por Luisy2knet


Más Versiones
Ver. 2 Ver. 3 Ver. 4 Ver. 5 Ver. 6

Cambiar Cifrado
Americano Latino

Cambiar Tonalidad
-1 +1

Partir Pantalla Imprimir FAQ

+A
-A
Trascripcion po Mauricio  PARRA
[email protected]
el poder del punk
**********************************************************************

INTRO:
E|-------------------------------------------------|
B|-------------------------------------------------|
G|-5-5-5---------7-7-7-----------------------------|
D|-5-5-5---------7-7-7---------5-5-5---------2-2-2-|
A|-3-3-3---------5-5-5---------5-5-5---------2-2-2-|
E|-----------------------------3-3-3---------0-0-0-|

Sin pensar sin pensar este mundo va acabar


|-----------------------------------------------|
|-----------------------------------------------|
|-5-5-5--------7-7-7----------------------------|
|-5-5-5--------7-7-7--------5-5-5-5------5/3--5-|
|-3-3-3--------5-5-5--------5-5-5-5------5/3--5-|
|---------------------------3-3-3-3------3/1--3-|

Sin pensar sin pensar quiero gritar


|---------------------------------------------------|
|---------------------------------------------------|
|-5-5-5-------7-7-7-------12-12-12-12----10-10--7-7-|
|-5-5-5-------7-7-7-------12-12-12-12----10-10--7-7-|
|-3-3-3-------5-5-5-------10-10-10-10----8--8---5-5-|
|---------------------------------------------------|

Sin pensar sin pensar este mundo tan perdido

|-----------------------------------------------|
|-----------------------------------------------|
|-5-5-5--------7-7-7----------------------------|
|-5-5-5--------7-7-7-------5-5-5-5-------5/3--5-|
|-3-3-3--------5-5-5-------5-5-5-5-------5/3--5-|
|--------------------------3-3-3-3-------3/1--3-|

Sin pensar sin pensar nanananana je!



INTERMEDIO
E|-------------------------------------|
B|---------7-7----------------9-9------|
G|-5-5---5-7-7---7-7--9-9---9-9-9--9-9-|
D|-5-5---5-5-5---7-7--9-9---9-7-7--9-9-|
A|-3-3---3-------5-5--7-7---7------7-7-|
E|-------------------------------------|



|----------------------------------|
|---------7-7----------------------|
|-5-5---5-7-7---7-7--9-9---9-9-9-9-|
|-5-5---5-5-5---7-7--9-9---9-9-9-9-|
|-3-3---3-------5-5--7-7---7-7-7-7-|
|----------------------------------|


CORO A
E|---------------------------------------------|
B|---------------------------------------------|
G|--------------7-7-----------------9-9--------|
D|-5-5-------5--7-7---7-7----9-9---9--9-9--9-9-|
A|-5-5-------5--5-5---7-7----9-9---9--7-7--9-9-|
E|-3-3-------3--------5-5----7-7---7-------7-7-|

Me queda una neurona de tanto aver pensado

CORO B
|------------------------------------------|
|------------------------------------------|
|--------------7-7-------------------------|
|-5-5-------5--7-7---7-7-----9-9---9-9-9-9-|
|-5-5-------5--5-5---7-7-----9-9---9-9-9-9-|
|-3-3-------3--------5-5-----7-7---7-7-7-7-|

LA llevo en MI cabeza para penzar

CORO A
|---------------------------------------------|
|---------------------------------------------|
|-------------7-7--------------------9-9------|
|-5-5------5--7-7---7-7-----9-9---9--9-9--9-9-|
|-5-5------5--5-5---7-7-----9-9---9--7-7--9-9-|
|-3-3------3--------5-5-----7-7---7-------7-7-|

A caso es culpa mia que sea un a sola

CORO B
|-----------------------------------------|
|-----------------------------------------|
|-------------7-7-------------------------|
|-5-5------5--7-7---7-7-----9-9---9-9-9-9-|
|-5-5------5--5-5---7-7-----9-9---9-9-9-9-|
|-3-3------3--------5-5-----7-7---7-7-7-7-|

Me queda una neurona la boy aprovechar!


REPETIR INTRO
REPETIR INTERMEDIO


CORO A

E|----------------------------------------------|
B|----------------------------------------------|
G|------------7-7----------------------9-9------|
D|-5-5-----5--7-7---7-7-------9-9---9--9-9--9-9-|
A|-5-5-----5--5-5---7-7-------9-9---9--7-7--9-9-|
E|-3-3-----3--------5-5-------7-7---7-------7-7-|

Me queda una neurona es algo descuidada

CORO B
|------------------------------------------|
|------------------------------------------|
|------------7-7---------------------------|
|-5-5-----5--7-7---7-7-------9-9---9-9-9-9-|
|-5-5-----5--5-5---7-7-------9-9---9-9-9-9-|
|-3-3-----3--------5-5-------7-7---7-7-7-7-|

Ella no me responde para penzar


|----------------------------------------------|
|----------------------------------------------|
|------------7-7----------------------9-9------|
|-5-5-----5--7-7---7-7-------9-9---9--9-9--9-9-|
|-5-5-----5--5-5---7-7-------9-9---9--7-7--9-9-|
|-3-3-----3--------5-5-------7-7---7-------7-7-|

A caso es culpa mia que sea una sola


|---------------------------------------|
|---------------------------------------|
|-----------7-7-------------------------|
|-5-5----5--7-7---7-7-----9-9---9-9-9-9-|
|-5-5----5--5-5---7-7-----9-9---9-9-9-9-|
|-3-3----3--------5-5-----7-7---7-7-7-7-|

Me queda una neurona la voy aprovechar!


REPITE INTRO


Dudas y comentarios contactemen a [email protected]
esta un 99.9% buena
Apollen el punk nacional sacada por ruffuz


ACORDES PARA GUITARRA

PIANO UKELELE
A
B
A
E


COMENTARIOS

Aún no hay comentarios,

¡escribe el primero!

Escribe una pregunta, duda o comentario sobre esta canción, te responderemos a la brevedad.

Las más tocadas de I.R.A.

Toca una Canción al Azar de I.R.A.
A
B
A
E