O Girassol
I.R.A.
Acordes

Subida por 17301613
Álbum: 7 ( 1996)



Otras Versiones
Ver. 2

Cambiar Cifrado
Americano Latino

Cambiar Tonalidad
-1 +1

Partir Pantalla Imprimir FAQ

+A
-A
LETRA CON ACORDES
(intro) A E/A  F#m/A A A  Bm/A E7/A  A

A E/A F#m/A A
E |-----------------------------------------------------------------|
B |---5-5-5---5-5-5---5-5-5---5-5-5---2-2-2---2-2-2---5-5-5---5---5-|
G |---6-6-6---6-6-6---4-4-4---4-4-4---2-2-2---2-2-2---6-6-6---6---6-|
D |---7-7-7---7-7-7---6-6-6---6-6-6---4-4-4---4-4-4---7-7-7---7---7-|
A |-0-------0-------0-------0-------0-------0-------0-------0-------|
E |-------------------------------------------------------------0---|

A Bm/A E7/A A Repete muitas vezes
E |--------------------------------------------------------------|---------------------
B |---5-5-5---5-5-5----7-7-7---7-7-7----9-9-9---9-9-9---10-10-10-|---10---10--10----10-
G |---6-6-6---6-6-6----7-7-7---7-7-7----7-7-7---7-7-7---9--9--9--|---9----9---9-----9--
D |---7-7-7---7-7-7----9-9-9---9-9-9----9-9-9---9-9-9---11-11-11-|---------------11----
A |-0-------0--------0-------0--------0-------0-------0----------|12---------0---------
E |--------------------------------------------------------------|------12-------------
(dedinho harmônico)
A
Eu tento me erguer às próprias custas e caio sempre nos seus braços
E A E
Um pobre diabo é o que sou

A E/Ab F#m E
Um girassol sem sol Um navio sem direção
D F#m/Db Bm7 E
Apenas a lembrança do seu sermão

A E/Ab F#m E D
Você é meu sol um metro e sessenta e cinco de sol
F#m7/Db Bm7 E
E quase o ano inteiro os dias foram noites, Noites para mim

F#m Db/F A/E B/Eb
Meu sorriso se foi Minha canção também
Bm7 C#m D E A E
Eu jurei por Deus não morrer por amor, E continuar a viver...

D C#m Bm7 Bm7 C#m D
Como eu sou um girassol, você é meu sol... uh, uh, uh...
D C#m Bm7 Bm7 C#m D
Como eu sou um girassol, você é meu sol... uh, uh, uh...
D C#m Bm7 E
Como eu sou um girassol, você é meu sol

(intro) A E7/A F#m7/A A A D E7 A

A
Eu tento me erguer às próprias custas e caio sempre nos seus braços
E A E
Um pobre diabo é o que sou

A E/Ab F#m E
Um girassol sem sol Um navio sem direção
D F#m/Db Bm7 E
Apenas a lembrança do seu sermão

A E/Ab F#m E D F#m7/Db Bm7 E
Morro de amor e vivo por aí Nenhum santo tem pena de mim

F#m Db/F A/E B/Eb
Sou agora um frágil cristal
Bm7 C#m D E E E E A
Um pobre diabo... que não sabe esquecer... Que não sabe esquece......er

(intro) A E/A F#m/A A

D C#m Bm7 Bm7 C#m D
Como eu sou um girassol, você é meu sol... uh, uh, uh...
D C#m Bm7 Bm7 C#m D
Como eu sou um girassol, você é meu sol... uh, uh, uh...
D C#m Bm7 Bm7 C#m D
Como eu sou um girassol, você é meu sol... uh, uh, uh...
D C#m Bm7 E
Como eu sou um girassol, você é meu sol

(intro) A E/A Bm/A A A D E7 A A A

ACORDES PARA GUITARRA

PIANO UKELELE
A
E/A
F#m/A
Bm/A
E7/A
E
E/Ab
F#m
D
Bm7
Db/F
A/E
B/Eb
C#m
F#m7/A
E7



COMENTARIOS

Aún no hay comentarios,

¡escribe el primero!

Escribe un comentario o pregunta sobre esta canción


TOP 20: Las más tocadas de I.R.A.

Ver más

Toca una Canción al Azar de I.R.A.
A
E/A
F#m/A
Bm/A
E7/A
E
E/Ab
F#m
D
Bm7
Db/F
A/E
B/Eb
C#m
F#m7/A
E7

Nuestro servidor se demoró 0.11 segundos en generar esta página. Eso fue realmente muy rápido!