Pecado
I.R.A.
Acordes

Subida por bomberoamigo2
Álbum: Entre Seus Rins ( 2001)


Más Versiones
Ver. 2 Ver. 3 Ver. 4 Ver. 5 Ver. 6

Cambiar Cifrado
Americano Latino

Cambiar Tonalidad
-1 +1

Partir Pantalla Imprimir FAQ

+A
-A
[Intro]  B7

Bm7
A morte é certa
A carne é fraca
B7 D
A vida é curta
Bm7
O sofrimento inevitável

Bm7
A carne é certa
A pele é fraca
B7 E
A roupa é curta
Bm7
O coração é indomável

Bm
A pele é pele
A roupa é roupa
F#m D
O sangue é sangue
Bm7
E a ânsia insaciável

Bm
O corpo humano
É desumano
F#m
O corpo amado
É desalmado
D B7 E/B B7 E/B
Tudo é pecado

Bm7
A vida é breve
A febre é alta
B7 D
A alma é uma
Bm7
E o demônio tão amável

Bm7
O mundo é grande
A mente é suja
B7 E
O sangue é quente
Bm7
E o desejo indisfarsável

Bm
O amor é cego
O amor é surdo
F#m D
O amor é mudo
Bm7
E a moral abominável

Bm
O corpo humano
É desumano
F#m
O corpo amado
É desalmado
D B
Tudo é pecado


(E D#m B A) (G#m F#m E B) (E D#m B A) (G#m F#m E B7)
E|---------------------------------------------------|
B|---------------------------------------------------|
G|---------------------------------------------------|
D|---------------------------------------------------|
A|--7-6---------------2-------7-6--------------2-----|
E|------7--5----4-2-0-------------7-5---4-2-0--------|

Bm
O amor é cego
O amor é surdo
F#m D
O amor é mudo
Bm7
E a moral abominável

Bm
O corpo humano
É desumano
F#m
O corpo amado
É desalmado
D B
Tudo é pecado

E/B
Tudo é pecado
B7
Tudo é pecado
E/B
Tudo é pecado
B7
Tudo é pecado

Pecado, pecado, pecado
B
Pecado, pecado, pecado


(E D#m B A) (G#m F#m E B)
E|------------------------|
B|------------------------|
G|------------------------|
D|------------------------|
A|--7-6---------------2---|
E|------7--5----4-2-0-----|

ACORDES PARA GUITARRA

PIANO UKELELE
B7
Bm7
D
E
Bm
F#m
E/B
B
D#m
A
G#m


COMENTARIOS

Aún no hay comentarios,

¡escribe el primero!

Escribe una pregunta, duda o comentario sobre esta canción, te responderemos a la brevedad.

Las más tocadas de I.R.A.

Toca una Canción al Azar de I.R.A.
B7
Bm7
D
E
Bm
F#m
E/B
B
D#m
A
G#m