Pompa Funebre (Acordes)

I.R.A.

Subida por VitoBass

Compartir


Cambiar Cifrado
Americano Latino

Cambiar Tonalidad
-1 +1
Imprimir FAQ
+A
-A

Texto

Desplazamiento

Transportador

Color de Fondo

Archivos

-A
+A
INTRO:
E|-------------------------------------------------|
B|-------------------------------------------------|
G|---------------------9------------7--------------|
D|---------7-----------9------------7-----------7--|
A|-7-5-4---7---7-5-4-5-7----7-5-4-7-5---7-5-4---7--|
E|-------7-5----------------------------------7-5--|

VERSO
E|----------------------------------------------|
B|----------------------------------------------|
G|-9977-------7777-------9977-------7777-9999---|
D|-9977-7777--7777-7777--9977-7777--7777-9999---| X4
A|-7755-7777--5555-7777--7755-7777--5555-7777---|
E|------5555-------5555-------5555--------------|

UNA TARDE FRÍA CON UN POCO DE VIENTO
EN LA COMÚN FOSA TE HAN DEPOSITADO
ESO ES LO QUE DICEN, QUE SOMOS POCA COSA
TUMBAS NO SON FIESTA, ESTAS EQUIVOCADO

CORO:
E|-------------------------------|
B|-------------------------------|
G|--777777-----------------------|
D|--777777-999999-555555-777777--| X4
A|--555555-999999-555555-777777--|
E|---------777777-333333-555555--|
POMPA FÚNEBRE A LA HORA DE MARCHAR
POMPA PARA QUE, NO SE VA A NECESITAR
POMPA FÚNEBRE EE…
POMPA PARA QUE EE…EE

VERSO:
LO COMÚN QUE SE ES
TU NO LO DEBES OLVIDAR
AL FIN Y AL CABO PERECES
LA SENSATEZ A DONDE ESTA.
POR QUE HAS MUERTO?.

CORO:

SOLO:
E|-4-6-44-6-44-6-4-6--6-8-66-8-66-8-6-8--888-666-444-6-4-6-|
B|---------------------------------------------------------|
G|---------------------------------------------------------|
D|---------------------------------------------------------|
A|---------------------------------------------------------|
E|---------------------------------------------------------|

E|-4-6-44-6-44-6-4-6--6-8-66-8-66-8-6-8--888----------------------|
B|-------------------------------------------101010-7-9-7-9-7-9-7-|
G|----------------------------------------------------------------|
D|----------------------------------------------------------------|
A|----------------------------------------------------------------|
E|----------------------------------------------------------------|

FINAL:
E|----------------------------------------------|
B|----------------------------------------------|
G|-9977-------7777-------9977-------7--9--------|
D|-9977-7777--7777-7777--9977-7777--7--9--7-77--|
A|-7755-7777--5555-7777--7755-7777--5--7--7-77--|
E|------5555-------5555-------5555--------5-55--|


Video Clip de Pompa Funebre


ACORDES PARA GUITARRA

PIANO UKELELE


TOP 20: Las más tocadas de I.R.A.


Toca una Canción al Azar de I.R.A.

Acordes

Cerrar

23.06

x

67