Por Trás de Um Sorriso
I.R.A.
Acordes

Subida por rambo2017
Álbum: Mudança de Comportamento ( 1985)



Otras Versiones
Ver. 2

Cambiar Cifrado
Americano Latino

Cambiar Tonalidad
-1 +1

Partir Pantalla Imprimir FAQ

+A
-A
LETRA CON ACORDES
Intro: E5  C#5  A5  B5

E5 C#5 A5 B5
Promessas vagas atiradas à população,

E5 C#5 A5 B5
Palavras fáceis do discurso na televisão,

E5 C#5 A5 B5
Você se engana achando isso tudo tão normal

F#5 G#5 A5 G#5
Por trás de um sorriso há quem sempre mentirá
F#5 G#5 E5 B5
Sinceridade é só o que espero de você!

E5 C#5 A5 B5
Promessas vagas atiradas à população,

E5 C#5 A5 B5
Palavras fáceis do discurso na televisão,

E5 C#5 A5 B5
Você se engana achando isso tudo tão normal

F#5 G#5 A5 G#5
Ouça todas as notícias olhe bem ao seu redor,
F#5 G#5 E5 B5
Retire a venda que o envolve é preciso ver

Solo:
1ª parte: (E5 C#5 A5 B5) 3x

E|--------------------------------------------------------------|
B|--------------------------------------------------------------|
G|--------------------------------------------------------------|
D|--------------------------------------------11---13b----------|
A|--------11---12/14~---------11---12/14~----------------14-----|
E|--------------------------------------------------------------| (3x)

2ª parte: F#5 G#5 A5 G#5
E|------------------------------------------------------------------12/14-12-11---12/14-12-11-|
B|------------12------------------------------------12/14-12----------------------------------|
G|--11-13-14-----14-13-11-----11--13/14---13-11---------------14------------------------------|
D|-------------------------14-------------------14--------------------------------------------|
A|--------------------------------------------------------------------------------------------|
E|--------------------------------------------------------------------------------------------|

3ª parte: F#5 G#5 E5 B5
E|------------------------------12-14-12----------------------|
B|--14-12-14-12-14-12-----12-14----------14-12b------10/12~---|



E5 C#5 A5 B5
Promessas vagas atiradas à população,

E5 C#5 A5 B5
Palavras fáceis do discurso na televisão,

E5 C#5 A5 B5
Você se engana achando isso tudo tão normal

F#5 G#5 A5 G#5
O sorriso, as notícias isso tudo ao seu redor,
F#5 G#5 E5 B5
Na verdade, as respostas estão em você

Final: E5 C#5 A5 G#5 A5 C#5 E5

ACORDES PARA GUITARRA

PIANO UKELELE
E5
C#5
A5
B5
F#5
G#5



COMENTARIOS

Aún no hay comentarios,

¡escribe el primero!

Escribe un comentario o pregunta sobre esta canción


TOP 20: Las más tocadas de I.R.A.

Ver más

Toca una Canción al Azar de I.R.A.
E5
C#5
A5
B5
F#5
G#5

Nuestro servidor se demoró 0.05 segundos en generar esta página. Eso fue realmente muy rápido!