Pra ficar comigo
I.R.A.
Acordes

Subida por Juan1402



Otras Versiones
Ver. 2

Cambiar Cifrado
Americano Latino

Cambiar Tonalidad
-1 +1

Partir Pantalla Imprimir FAQ

+A
-A
LETRA CON ACORDES

riff-1
e|--------------------------------
B|--------------------------------
G|--------------------------------
D|---7------7---------7-----7-----
A|--------------------------------
G|-5------5---5-----5-----5---5---



**você pode usar esse riff substituindo os acordes D A A:

E|-xx-xx-x-2-0-0--|
B|-xx-xx-x-3-2-2--|
G|-xx-xx-x-2-2-2--|
D|-xx-xx-x-0-2-2--|
A|-xx-xx-x---0-0--|
E|-xx-xx-x--------|




E|-0-0---0--0--3--|
B|-2-2---2--2--3--|
G|-2-2---2--2--0--|
D|-2-2---2--2--0--|
A|-0-0---0--0--2--|
E|-------------3--|


D A A D A A
Sempre estive ao seu lado
D A A D A A
Me diga agora Se estou errado
D Bm
Você me ama, isso eu sei
D A A D A A
Mas me deixou, Sem ter porque
D A
Você pode inventar mil desculpas
Bm D
Mas meu bem você já é bem adulta
D A A
Vem ficar comigo



Nos momentos que deitamos
Eu me lembro foram muitos planos
Agora vejo tudo desmoronar
Abro meus olhos, você não está
Meus sentido estão todos a mil
No meu carro tem um banco vazio


[Refrão]


D A A
Vem ficar comigo
D A A
Sem mais demora
D A A
Pra ficar comigo
D A A
De vez

4x


A F#m Bm D A A D A A
Você te-e-e-em Que se decidir
A F#m Bm D A A D A A
E para-a-a-ar De me confundir

Trabalho muito, o dia todo
No fim do mês, não me sobra o troco
Mas sem dinheiro sei que posso viver
Sem você, eu não sei
Meus sentidos estão todos a mil
No meu carro tem um banco vazio
[Refrão]

até o final. na última vez você termina fazendo três vezes o A, sem fazer o G.

ACORDES PARA GUITARRA

PIANO UKELELE
D
A
Bm
F#m
G



COMENTARIOS

Aún no hay comentarios,

¡escribe el primero!

Escribe un comentario o pregunta sobre esta canción


TOP 20: Las más tocadas de I.R.A.

Ver más

Toca una Canción al Azar de I.R.A.
D
A
Bm
F#m
G

Nuestro servidor se demoró 0.02 segundos en generar esta página. Eso fue realmente muy rápido!