Que nadie fuera distinto
I.R.A.
Acordes

Subida por Wero7777


Más Versiones
Ver. 2 Ver. 3

Cambiar Cifrado
Americano Latino

Cambiar Tonalidad
-1 +1

Partir Pantalla Imprimir FAQ

+A
-A
e|---------------------------------|
B|---------------------------------|
G|-5~~-------------------55-55-5---|
D|-5~~------(PICK-SLIDE)-55-55-55--|
A|-3~~-------------------33-33-35--|
E|------------------------------3--|


G5 A5 C5-G5
Hoy ponemos las almas alla
G5 A5 C5-G5
a la amargua causada porque
G5 A5 C5-G5
a diario se prohibe algo mas
G5 A5
espacios mas cerrados cada vez


C5 G5
Y lo que querian era que nadie fuera distinto
A5 G5
y que nadie caminara en falta de ellos
C5 G5
uniformes rosas son lavado cotidiano
A5 G5
de mentira mente que habra perdirdo cerebro

e|-----------|
B|-----------|
G|-55-55-5---|
D|-55-55-55--|
A|-33-33-35--|
E|--------3--|

G5 A5 C5-G5
O penerce mezcla era malo
G5 A5 C5-G5
personas que tratan de acabar
G5 A5 C5-G5
el derecho a la libre de exprecion
G5 A5
sumirce a la solucion tambien


C5 G5
Y lo que querian era que nadie fuera distinto
A5 G5
y que nadie caminara en falta de elloss
C5 G5
uniformes rosas son lavado cotidiano
A5 G5
de mentira mente que habra perdirdo cerebro


C5 G5
Y lo que querian era que nadie fuera distinto
A5 G5
y que nadie caminara en falta de ellos

e|-------------------------|-----|
B|-------------------------|-----|
G|-55-55-5--5555-------X2--|--5--|
D|-55-55-55-5555-5555------|--5--|
A|-33-33-35-3333-5555------|--3--|
E|--------3------3333------|-----|


ACORDES:
e|---X-----X-----X------------|
B|---X-----X-----X------------|
G|---5-----X-----X------------|
D|---5-----5-----7------------|
A|---3-----5-----7------------|
E|---X-----3-----5------------|
C5 G5 D5

LA LETRA NO LA ENTENDI MUY BIEN LA VERDAD PERO LOS ACORDES ESTAN
TOTALMENTE BIEN...COMENTARIOS O SI QUIEREN CONSEGUIR CANCIONES DE
CHITE ESCRIBANME AL CORREO [email protected]


ACORDES PARA GUITARRA

PIANO UKELELE
G5
A5
C5
D5


COMENTARIOS

Aún no hay comentarios,

¡escribe el primero!

Escribe una pregunta, duda o comentario sobre esta canción, te responderemos a la brevedad.

Las más tocadas de I.R.A.

Toca una Canción al Azar de I.R.A.
G5
A5
C5
D5