Sepultado
I.R.A.
Acordes

Subida por Malou


Más Versiones
Ver. 2 Ver. 3

Cambiar Cifrado
Americano Latino

Cambiar Tonalidad
-1 +1

Partir Pantalla Imprimir FAQ

+A
-A
E|-------------|
B|-------------|
G|-------------|
D|-2--2--2--2--|
A|-2--2--2--2--|
E|-0--0--0--0--|

VERSO:
E|--------------------------|
B|--------------------------|
G|-------6-66--2-22--44-22--|
D|-2-22--6-66--2-22--44-22--|
A|-2-22--4-44--0-00--22-00--|
E|-0-00---------------------|


E5 C#5 A5 B5 A5
Has perdido la vida
E5 C#5 A5 B5 A5
En esta existencia temporal
E5 C#5 A5 B5 A5
Por ti nos lamentamos
E5 C#5 A5 B5 A5
Ya no lo vas a necesitar
E5 C#5 A5 B5 A5
Antes de tu partida
E5 C#5 A5 B5 A5
No tuvimos tiempo de abrazar
E5 C#5 A5 B5 A5
Cuando llego tu día
E5 C#5 A5 B5
Tuve tiempo de irte a sepultar


CORO:
E|-----------------------------------------|
B|-----------------------------------------|
G|-2-2222222--4-4444444-----------66666666-|
D|-2-2222222--4-4444444--22222222-66666666-|
A|-2-0000000--2-2222222--22222222-44444444-|
E|-----------------------00000000----------|
|------pm------|

E|-----------------------------------------|
B|-----------------------------------------|
G|-2-2222222--6--444444-----------66666666-|
D|-2-2222222--6--444444--22222222-66666666-| X2
A|-2-0000000--4--222222--22222222-44444444-|
E|-----------------------00000000----------|
|------pm------|

E|-----------------------------------|
B|-----------------------------------|
G|-2-2222222--6--444444--------------|
D|-2-2222222--6--444444--22222222----|
A|-2-0000000--4--222222--22222222----|
E|-----------------------00000000----|

A5
Aprendí tanto de ti
B5
Después de verte morir
E5 C#5
Aprecie tanto de ti al mirarlo lo sentí
A5 C#5 B5
Ahora solo queda el viento
E5 C#5
Para decirle lo que siento
A5 C#5 B5 E5 C#5
Ahora solo queda el viento, Oooh
A5 C#5 B5 E5
Ahora solo queda el viento, Oooh



VERSO:
E5 C#5 A5 B5 A5
Tal vez te hiciste daño
E5 C#5 A5 B5 A5
Tal vez te lo hicimos a ti
E5 C#5 A5 B5 A5
Tal vez te perdonamos
E5 C#5 A5 B5 A5
Tal vez me perdonaste a mí
E5 C#5 A5 B5 A5
Algo que nos dejaste
E5 C#5 A5 B5 A5
Yo cada día he recordado
E5 C#5 A5 B5 A5
Que si un árbol esta florido
E5 C#5 A5 B5
Pues algo tiene sepultado



CORO:
A5
Aprendí tanto de ti
B5
Después de verte morir
E5 C#5
Aprecie tanto de ti al mirarlo lo sentí
A5 C#5 B5
Ahora solo queda el viento
E5 C#5
Para decirle lo que siento
A5 C#5 B5 E5 C#5
Ahora solo queda el viento, Oooh
A5 C#5 B5 E5
Ahora solo queda el viento, Oooh



SOLO:
E|----------11-12---12-11---------|
B|----12-14---------------14-12V--|
G|-11-----------------------------|
D|--------------------------------|
A|--------------------------------|
E|--------------------------------|

E|-12-11-----12-11-----12-11-----12-11-----12-11-----12-|
B|-------14--------14--------14--------14--------14-----|
G|------------------------------------------------------|
D|------------------------------------------------------|
A|------------------------------------------------------|
E|------------------------------------------------------|

E|-12"-11"-9"--------------------------------------|
B|------------11"-9"-------------------------------|
G|-------------------11"-9"-9/8------------8-9-11v-|
D|------------------------------11-9-9--11---------|
A|-------------------------------------------------|
E|-------------------------------------------------|

E|-------------|------------------|
B|-------------|-------5--5-------|
G|-11"-9"-8"---|-4V--4------6/4v--|
D|----------9--|------------------|
A|-------------|------------------|
E|---------X2--|------------------|


E5 C#5 A5 B5 A5
Día tras día poder lograr
E5 C#5 A5 B5 A5
Recordar, pensar, olvidar, vivir sin rencores
E5 C#5 A5 B5 A5
Comprender lo incomprendido
E5 C#5 A5 B5 A5
Adaptarme a este vacio
E5 C#5 A5 B5 A5
Sepultado
E5 C#5 A5 B5 A5
Sepultado
E5 C#5 A5 B5 A5
sepultado
E5 C#5 A5 B5
ooohh...

E|-------------|
B|-------------|
G|-------------|
D|-2--2--2--2--|
A|-2--2--2--2--|
E|-0--0--0--0--|

ACORDES:
E|----------------------------| " = punteo tremolo
B|----------------------------| / = slide (deslizar)
G|--------2------4------6-----| v = vibrato
D|--2-----2------4------6-----| pm = palm mute
A|--2-----0------2------4-----|
E|--0-------------------------|
E5 A5 B5 C#5


ACORDES PARA GUITARRA

PIANO UKELELE
E5
C#5
A5
B5


COMENTARIOS

Aún no hay comentarios,

¡escribe el primero!

Escribe una pregunta, duda o comentario sobre esta canción, te responderemos a la brevedad.

Las más tocadas de I.R.A.

Toca una Canción al Azar de I.R.A.
E5
C#5
A5
B5