Sin Afán
I.R.A.
Acordes

Subida por Franco


Más Versiones
Ver. 2

Cambiar Cifrado
Americano Latino

Cambiar Tonalidad
-1 +1

Partir Pantalla Imprimir FAQ

+A
-A
INTRO:
E|--------------------------------|
B|--------------------------------|
G|--------------------------------|
D|-77777--77777--777-666-555-444--|
A|-55555--55555--555-444-333-222--|
E|--------------------------------|

E|------------------------------|
B|------------------------------|
G|--5---5-9-7---9--7--5----5/7--|
D|--5---5-9-7---9--7--5----5/7--|
A|------------------------------|
E|------------------------------|

G5
Por más prisa que lleva el ser humano,
D5
y por más velocidad no irá lejos,
C5
no podrá cambiar su único destino
D5
nada pasa aunque te afanes así es.
G5
Convirtiendo los días en segundos
D5
el reloj será tu dios imparable
C5
crees que tú timepo mucho te has rendido
D5
no te engañes que tú le has rendido a él.


C5 G5 C5 G5
hey hey, hey hey
C5 G5 D5
hey hey, detente!!

E|------------------------------|
B|------------------------------|
G|--5---5-9-7---9--7--5----5/7--|
D|--5---5-9-7---9--7--5----5/7--|
A|------------------------------|
E|------------------------------|

G5
De correr solo quedaras cansado
D5
forzandodo en lo que nunca va a suceder
C5
tal vez lo mejor hace tiempo paso
D5
no sigues esperando no sabes qué.
G5
no te afanes para llegar a lo mismo
D5
aprovecha con aquello que tenés
C5
no caigas en la trampa del consumo
D5
si tu alma esta vacía llénale


C5 G5 C5 G5
hey hey, hey hey
C5 G5 D5
hey hey, detente!!

E|------------------------------|
B|------------------------------|
G|--5---5-9-7---9--7--5----5/7--|
D|--5---5-9-7---9--7--5----5/7--|
A|------------------------------|
E|------------------------------|


G5 G5
No has dejado ni un minuto a tus sueños
D5 D5
vas corriendo directo hacia tu vejes
C5 C5
cuando te des cuenta que todo acabo
D5 D5
ya no te vas poder retroceder.
G5 G5
solo de te futuro te has ocupado
D5 D5
estas viviendo tus días al revés
C5 C5
cuando sea tu turno para el cajón
D5 D5 G5
será tarde para vivir lo que querés.

ACORDES:
E|-------------------|
B|-------------------|
G|---5----------7----|
D|---5----5-----7----|
A|---3----5-----5----|
E|--------3----------|
C5 G5 D5


ACORDES PARA GUITARRA

PIANO UKELELE
G5
D5
C5


COMENTARIOS

Aún no hay comentarios,

¡escribe el primero!

Escribe una pregunta, duda o comentario sobre esta canción, te responderemos a la brevedad.

Las más tocadas de I.R.A.

Toca una Canción al Azar de I.R.A.
G5
D5
C5