Sin Monopolios
I.R.A.
Acordes

Subida por elchima


Más Versiones
Ver. 2

Cambiar Cifrado
Americano Latino

Cambiar Tonalidad
-1 +1

Partir Pantalla Imprimir FAQ

+A
-A
|===============|
|Sin Monopolios | tabulada por Cometin
|Por I.R.A. | www.LaIzkieda.tk3.net
|Epidemia | [email protected]
|===============|

Ecualisaxion:
En general I.R.A. kuadra el ekualisador similar a este w
La distorxion en 7,el treble en 8,el mid en 6,el bass en 2 w
Afinacion: EbGDAE w
Es mas recomendable tokarla en kintas .
L
Intro: A
B C# F# A# cada akorde mas o menos unas 5 ó 4 veces I
z
Versos: k
i
B C# F# A# E
Sin monopolios r
B C# F# A# D
No hay dueños únicos a
(CONTINUA IGUAL) .
De los sueños t
Ni de la realidad k
De la vida ni de la mortalidad 3
Sin monopolios .
n
Puente: E
F# C# D#C#B# F# t
|----------------------|-|-|-----------------------|
|----------------------|-|-|-----------------------|
|--------------6-6-6-6-8-6-4-4-4-4-4-4-------------|
|-4-4-4-4-4-4--6-6-6-6-8-6-4-4-4-4-4-4--4-4--4-4---|
|-4-4-4-4-4-4--4-4-4-4-6-4-2-2-2-2-2-2--4-4--4-4---|
|-2-2-2-2-2-2---------------------------2-2--2-2---|

Sin monopolios!!!!

Puente:
F# C# D#C#B# F#
|----------------------|-|-|-----------------------|
|----------------------|-|-|-----------------------|
|--------------6-6-6-6-8-6-4-4-4-4-4-4-------------|
|-4-4-4-4-4-4--6-6-6-6-8-6-4-4-4-4-4-4--4-4--4-4---|
|-4-4-4-4-4-4--4-4-4-4-6-4-2-2-2-2-2-2--4-4--4-4---|
|-2-2-2-2-2-2---------------------------2-2--2-2---|

LUEGO VIENE OTRO VERSO Y OTRA VEZ EL PUENTE ANTES Y
DESPUES DE KE VIOLA GRITA
SIN MONOPOLIOS!!!!!!

Eso es todo,si la tab tiene errores o solo te apetece escribir
lo puedes hacer a [email protected]
Visite Mi site www.LaIzkierda.tk3.net
Cometin_


ACORDES PARA GUITARRA

PIANO UKELELE
A
B
C#
F#
A#
E
D


COMENTARIOS

Aún no hay comentarios,

¡escribe el primero!

Escribe una pregunta, duda o comentario sobre esta canción, te responderemos a la brevedad.

Las más tocadas de I.R.A.

Toca una Canción al Azar de I.R.A.
A
B
C#
F#
A#
E
D