Sin Patria
I.R.A.
Acordes

Subida por carlosaxelcanedolopez


Más Versiones
Ver. 2 Ver. 3

Cambiar Cifrado
Americano Latino

Cambiar Tonalidad
-1 +1

Partir Pantalla Imprimir FAQ

+A
-A
Intro:
e|-------------------------------|
B|-------------------------------|
G|------1111-----6666-77-66---X2-|
D|-9999-1111-99--6666-77-66------|
A|-9999-9-9--99--4444-55-44------|
E|-7777------77------------------|

VERSO 1:
B5 F5 B5 C#5 D5 C#5
La patria me ha traicionado
B5 F5 B5 C#5 D5 C#5
Soberanía has fracasado
B5 F5 B5 C#5 D5 C#5
Fronteras del egoísmo
B5 F5 B5 C#5 D5 C#5
Que espantan mi patriotismo
B5 F5 B5 C#5 D5 C#5
De que me sirve reconocerlo
B5 F5 B5 C#5 D5 C#5
Y limitarme a estar atado
B5 F5 B5 C#5 D5 C#5
Solo rencores hay que saberlo
B5 F5 B5 C#5 D5 C#5
Nadie parece civilizado

e|------------|
B|------------|
G|-999999-7-6-|
D|-999999-7-6-|
A|-777777-5-4-|
E|------------|

B5 C#5 D5 E5 D5 C#5
Me tiene sin cuidado
B5 C#5 D5 E5 D5 C#5
Fantasma de la patria
B5 C#5 D5
Estoy decepcionado


CORO:
B5 F5
Somos un país herido
C#5 C#5 E5 C#5
La patria me tiene ya jodido
B5 F5
Derechos humanos en ausencia
C#5 C#5 E5 C#5
La patria me tiene sin conciencia
B5 F5
Tengo cara de patriota
C#5 C#5 E5 C#5
La patria me tiene corrompido
B5 F5
No quiero sufrir la consecuencia
C#5 C#5 E5 C#5
De ser un idiota reducido

e|-------------------------------|
B|-------------------------------|
G|------1111-----6666-88-66---X2-|
D|-9999-1111-99--6666-88-66------|
A|-9999-9-9--99--4444-66-44------|
E|-7777------77------------------|

VERSO 2:
B5 F5 B5 C#5 D5 C#5
Siempre tienes que defenderla
B5 F5 B5 C#5 D5 C#5
Y ella nunca se lo merece
B5 F5 B5 C#5 D5 C#5
Una patria imaginaria
B5 F5 B5 C#5 D5 C#5
Donde lo bueno desaparece


- LOS ACORDES SON FACILES Y SON LOS Q APARECEN EN LA TABLA DE ABAJO
- DUDAS COMENTARIOS O CORRECCIONES AL CORREO

Acordes:
e|---X---X---X---X---X---|
B|---X---X---X---X---X---|
G|---X---11--6---7---9---|
D|---9---11--6---7---9---|
A|---9---9---4---5---7---|
E|---7---X---X---X---X---|
B5 F5 C#5 D5 E5


ACORDES PARA GUITARRA

PIANO UKELELE
B5
F5
C#5
D5
E5


COMENTARIOS

Aún no hay comentarios,

¡escribe el primero!

Escribe una pregunta, duda o comentario sobre esta canción, te responderemos a la brevedad.

Las más tocadas de I.R.A.

Toca una Canción al Azar de I.R.A.
B5
F5
C#5
D5
E5