Sucio Plan
I.R.A.
Acordes

Subida por orlando


Más Versiones
Ver. 2

Cambiar Cifrado
Americano Latino

Cambiar Tonalidad
-1 +1

Partir Pantalla Imprimir FAQ

+A
-A
INTRO:(Todo el intro va con palm mute)
E|----------------------------------------------------|
B|-----------------------------------------------X2---|
G|----------------------------------------------------|
D|-7-----7------7-----7-------------------------------|
A|-55555-555555-55555-55555--7------7-----7-----7-----|
E|---------------------------555555-55555-55555-55555-|

E|----------------------------------------------------|
B|-----------------------------------------------X2---|
G|----------------------------------------------------|
D|----------------------------------------------------|
A|-5-----5------5-----5------7------7-----7-----7-----|
E|-33333-333333-33333-33333--555555-55555-55555-55555-|


D5 A5
Existe un sucio plan para adueñarse de la vida y se joderán.
D5 A5
viven alucinando con dominar nuestros días y no lo lograran.
G5 A5
Quieren tenerlo todo y convertirlo en porquería en su suciedad.
G5 A5
Intentan convencernos de estúpidas fantasías y quién les creerá.
D5 A5
Me sublevo a esta mierda que no cuenten con mi vida que nunca la tendrán.
D5 A5
no crean que en su guerra entregaré mis alegrías y mi dignidad.
G5 A5
fracasaste con tu plan te quedaste sin salida debes escapar.
G5 A5
mejor búscate a una idiota que te crea tus mentiras a él engañaras.


(Bajo y batería únicamente)
Es un sucio plan, es un sucio plan (Bis 2).

(Comienza el verso con un pick slide)
D5 A5
Inventan filosofías, religiones, teorías y doctrinas.
D5 A5
Diseñan políticas, modelos de economía y de vida.
G5 A5
privatizan, decomisan todo de sus compañías, monopolizan
G5 A5
amplifican sus discursos y transmiten sus noticias, mentirillas.
D5 A5
Me revelo a tu basura, me opongo a lo que me digas, nunca será verdad.
D5 A5
no queremos hacer parte del mundo que tu querías de una infamia.
G5 A5
Creías que era muy fácil pero perdiste el control, el bumerang volvió.
G5 A5
Mejor róbate un vestido de bufón o de doctor me engañaras mejor.


(Bajo y batería únicamente)
Es un sucio plan, es un sucio plan (Bis 2).

FINAL:
E|-----------------|
B|-----------------|
G|-Pick slide--7---|
D|-------------7---|
A|-------------5---|
E|-----------------|

ACORDES:
E|---X----X----X---|
B|---X----X----X---|
G|---X----X----7---|
D|---5----7----7---|
A|---5----7----5---|
E|---3----5----X---|
G5 A5 D5


ACORDES PARA GUITARRA

PIANO UKELELE
D5
A5
G5


COMENTARIOS

Aún no hay comentarios,

¡escribe el primero!

Escribe una pregunta, duda o comentario sobre esta canción, te responderemos a la brevedad.

Las más tocadas de I.R.A.

Toca una Canción al Azar de I.R.A.
D5
A5
G5