Super Punks
I.R.A.
Acordes

Subida por JAVIERBATISTA


Más Versiones
Ver. 2 Ver. 3

Cambiar Cifrado
Americano Latino

Cambiar Tonalidad
-1 +1

Partir Pantalla Imprimir FAQ

+A
-A
* LA CANCION ESTA 100% CORRECTA PERO HAY KE TENER CUIDADO CON LOS VERSOS
PARA QUE PUEDAN SONAR PERFECTO
* LOS ACORDES KE VAN DEBAJO DEL PUNTEO Y CUANDO CANTAN LA PARTE KE
DICE "GRITAREMOS LIBERTAD" VAN CON PALM MUTE
* DUDAS, COMENTARIOS O CORRECCIONES AL CORREO [email protected]

INTRO:
E|-------------------------------------------------|
B|-------------------------------------------------|
G|-5-----------5-----------5-----------7-----------|
D|-5-----5-----5-----5-----5-----5-----7-----77-55-|
A|-3-----5-----3-----5-----3-----5-----5-----77-55-|
E|-------3-----------3-----------3-----------55-33-|

C5 A5 G5
Ellos hacen imbecilidades
D5 C5 G5
Acabando con la imagen
A5 G5 Em5 A5-A5 G5-G5
del puntero nacional
C5 A5 G5
Siempre adiccion y decadencia
D5 C5 G5
De un cerebro alucinado
A5 G5 Em5 A5-A5 G5-G5
Nada se puede esperar
D5 C5 G5
Solo hablas puras babosadas
D5 C5 G5
De los que hemos resistido
A5 G5 Em5 A5-A5 G5-G5
Mucho tiempo sin parar
D5 C5 G5
Eres tipico superpunkero
D5 C5 G5
Que apareces de la nada
A5 G5 Em5
En la calle a fastidiar

INTERMEDIO:
C5 G5 A5 Em5 C5 G5 A5 Em5 A5-A5 G5-G5
E|-777777-333333-555555-777777-|-777777-333333-555555-3~~----|
B|-----------------------------|-----------------------------|
G|-----------------------------|-----------------------------|
D|------------------------x3---|-----------------------------|
A|-----------------------------|-----------------------------|
E|-----------------------------|-----------------------------|

C5 A5 G5
Nos dices a nosotros comerciales
D5 C5 G5
Tu comercio alcohol y droga
A5 G5 Em5 A5-A5 G5-G5
quien sera mas comercial
C5 A5 G5
Quien gasta toda una fortuna en vicio
D5 C5 G5
O nosotros trabajando
A5 G5 Em5 A5-A5 G5-G5
una musica vital
C5 A5 G5
crees que todos te tienen miedo
D5 C5 G5
Pero estas equivocado
A5 G5 Em5 A5-A5 G5-G5
Solo sienten lastima
C5 A5 G5
Tonto eres un pobre indefenso
D5 C5 G5
Los verdaderos punkeros
A5 G5 Em5 C5 G5
Gritaremos libertad
A5 Em5 C5 G5
Gritaremos libertad
A5 Em5 C5 G5
Gritaremos libertad
A5 Em5 C5 G5
Gritaremos libertad
A5 Em5
Gritaremos libertad

FINAL:
E|--------------------------------------------|
B|--------------------------------------------|
G|-5-----------5-----------5-----------7------|
D|-5-----5-----5-----5-----5-----5-----7------|
A|-3-----5-----3-----5-----3-----5-----5------|
E|-------3-----------3-----------3------------|

ACORDES:
E|-----X-----X-----X-----X-----X-----|
B|-----X-----X-----X-----X-----X-----|
G|-----X-----X-----5-----7-----X-----|
D|-----5-----7-----5-----7-----0-----|
A|-----5-----7-----3-----5-----0-----|
E|-----3-----5-----X-----X-----2-----|
G5 A5 C5 D5 Em5

////////////////// ¿Te Animas? Sube una canción a este sitio. //////////////////

ACORDES PARA GUITARRA

PIANO UKELELE
C5
A5
G5
D5
Em


COMENTARIOS

Aún no hay comentarios,

¡escribe el primero!

Escribe una pregunta, duda o comentario sobre esta canción, te responderemos a la brevedad.

Las más tocadas de I.R.A.

Toca una Canción al Azar de I.R.A.
C5
A5
G5
D5
Em