Víctimas
I.R.A.
Acordes

Subida por Jesusdtheran


Más Versiones
Ver. 2 Ver. 3

Cambiar Cifrado
Americano Latino

Cambiar Tonalidad
-1 +1

Partir Pantalla Imprimir FAQ

+A
-A
VERSO:
E|---------------------------------X5--|
B|-------------------------------------|
G|----------77777777------77-66-55-44--|
D|-22222222-77777777-7777-77-66-55-44--|
A|-22222222-55555555-7777-55-44-33-22--|
E|-00000000----------5555--------------|

(bATERÍA Y VOZ)
Siempre seremos unas victimas
E5 D5 A5
Todos somos unas victimas
D5 C#5 C5 B5
del poder abusivo
E5 D5 A5
Muchos millones pa la guerra
D5 C#5 C5 B5
pa la cultura centavos
E5 D5 A5
Del rock´n roll pretender vivir
D5 C#5 C5 B5
te dirá que estas loco
E5 D5 A5
Algún día se darán cuenta
D5 C#5 C5 B5
lo valiosos que éramos


CORO:
E|---------------------|------------------|
B|-----------------X3--|------------------|
G|-777777-6-5----------|-4444-5555-6666-7-|
D|-777777-6-5-77777777-|-4444-5555-6666-7-|
A|-555555-4-3-77777777-|-2222-3333-4444-5-|
E|------------55555555-|------------------|

D5 C#5 C5 A5
Siempre seremos victimas de su ignorancia
D5 C#5 C5 A5
Con su mismo cuchillo con ese se matan
D5 C#5 C5 A5
Siempre seremos victimas de su ingnorancia
B5 C5 C#5 D5
Ignorantes, ignorantes


VERSO:
E5 D5 A5
Tantos necesitando ayuda
D5 C#5 C5 B5
las puertas se cerraron
E5 D5 A5
Muchas armas poca música
D5 C#5 C5 B5
pero cantar yo prefiero
E5 D5 A5
Porque fortalece mi alma
D5 C#5 C5 B5
lo importante es eso
E5 D5 A5
Si nadie nos quiere valorar
D5 C#5 C5 B5
sin ayuda seguiremos


CORO:
D5 C#5 C5 A5
Siempre seremos victimas de su ignorancia
D5 C#5 C5 A5
Con su mismo cuchillo con ese se matan
D5 C#5 C5 A5
Siempre seremos victimas de su ingnorancia
B5 C5 C#5 D5
Ignorantes, ignorantes
D5 C#5 C5 A5
Siempre seremos victimas de su ignorancia
D5 C#5 C5 A5
Con su mismo cuchillo con ese se matan
D5 C#5 C5 A5
Siempre seremos victimas de su ingnorancia

FINAL:
E|-----------------------------------------|
B|-----------------------------------------|
G|-4444-5555-6666-7---------7--------------|
D|-4444-5555-6666-7----2----7-----7--------|
A|-2222-3333-4444-5----2----5-----7--------|
E|---------------------0----------5--------|


ACORDES:
E|---X----X-----X-----X-----X-----X---|
B|---X----X-----X-----X-----X-----X---|
G|---X----X-----7-----8-----5-----4---|
D|---2----7-----7-----8-----5-----4---|
A|---2----7-----5-----6-----3-----2---|
E|---0----5-----X-----X-----X-----X---|
E5 A5 D5 C#5 C5 B5


ACORDES PARA GUITARRA

PIANO UKELELE
E5
D5
A5
C#5
C5
B5


COMENTARIOS

Aún no hay comentarios,

¡escribe el primero!

Escribe una pregunta, duda o comentario sobre esta canción, te responderemos a la brevedad.

Las más tocadas de I.R.A.

Toca una Canción al Azar de I.R.A.
E5
D5
A5
C#5
C5
B5