Vivir para esto
I.R.A.
Acordes

Subida por Lucasz178


Más Versiones
Ver. 2

Cambiar Cifrado
Americano Latino

Cambiar Tonalidad
-1 +1

Partir Pantalla Imprimir FAQ

+A
-A
We|-------------------------------------|
B|-------------------------------------|
G|-77777777-55555555-------------------|
D|-77777777-55555555-77777777-8888888--|
A|-55555555-33333333-77777777-8888888--|
E|-------------------55555555-6666666--|


D5 C5 A5
Para llegar para alcanzar
A#5
Todo lo que he soñado
D5 C5 A5
Para cantar para expresar
A#5
Todo lo que he pensado
D5 C5 A5
Para crear para sentir
A#5
Todo lo imaginado

D5
Para poner valor a la existencia
C5
Para poder gozar de tu presencia
A5
Para poder apreciar su existencia
A#5
Para poder perdonar a la ciencia

D5 C5
Para bailar, para abrazar, para llorar
A5 A#5
Para luchar, para morir, para evitarlo (bis)

e|-------------------------------------|
B|-------------------------------------|
G|-77777777-55555555-------------------|
D|-77777777-55555555-77777777-8888888--|
A|-55555555-33333333-77777777-8888888--|
E|-------------------55555555-6666666--|

D5 C5
Para creer que todo puede ser mejor
A5 A#5
Para entender lo inmenso de la creación
D5 C5
Para poder beber los manantiales
A5 A#5
Para poder cuidar los animales
D5 C5
Para intentar no odiar a los infames
A5 A#5
Para regar mi voz por siete mares

D5 C5
Para bailar, para abrazar, para llorar
A5 A#5
Para luchar, para morir, para evitarlo (bis)

e|-------------------------------------------------------------------|
B|-------------------------------------------------------------------|
G|-777777777777777-555555555555555------------------55555555---------|
D|-777777777777777-555555555555555-77777777-8888888-55555555-7777777-|
A|-555555555555555-333333333333333-77777777-8888888-33333333-7777777-|
E|---------------------------------55555555-6666666----------5555555-|


Para creer que todo puede ser mejor (bis)
G|-----------------------------------------|
D|-----------------------------------------|
A|-57-57-57-57-35-35-35-35-----------------|
E|-------------------------5555555-6666666-|

G|------------------------------------|
D|------------------------------------|
A|-55555555-33333333------------------|
E|-------------------55555555-6666666-|

e|-------------------------------------------------------------------|
B|-------------------------------------------------------------------|
G|-777777777777777-555555555555555------------------55555555---------|
D|-777777777777777-555555555555555-77777777-8888888-55555555-7777777-|
A|-555555555555555-333333333333333-77777777-8888888-33333333-7777777-|
E|---------------------------------55555555-6666666----------5555555-|

ACORDES:
e|----X----X----X----X----|
B|----X----X----X----X----|
G|----7----5----X----X----|
D|----7----5----7----8----|
A|----5----3----7----8----|
E|----X----X----5----6----|
D5 C5 A5 A#5


SI NECESITAN CANCIONES DE CHITE ESCRIBANME AL CORREO
[email protected]


ACORDES PARA GUITARRA

PIANO UKELELE
D5
C5
A5
A#5


COMENTARIOS

Aún no hay comentarios,

¡escribe el primero!

Escribe una pregunta, duda o comentario sobre esta canción, te responderemos a la brevedad.

Las más tocadas de I.R.A.

Toca una Canción al Azar de I.R.A.
D5
C5
A5
A#5