Ala Granja (Acordes)

Isis

Subida por itsemmachora99

Compartir


Cambiar Cifrado
Americano Latino

Cambiar Tonalidad
-1 +1
Imprimir FAQ
+A
-A

Texto

Desplazamiento

Transportador

Color de Fondo

Archivos

-A
+A
intro
                A5                                G     C
E||------------------|-----------------------|------------------------|
B||------------------|-----------------------|------------------------|
G||------------------|--2--2----2----2----2--|----2-------------5-----|
D||------------------|--2--2----2----2----2--|----2-------5-----2-----|
A||------------------|-----------------------|---------0--0--0-----0--|
E||------------------|-----------------------|------------------------|


  A5                                G     C        A5
-----------------------|------------------------|-----------------------|
-----------------------|------------------------|-----------------------|
--5b-2----2----2----2--|----2-------2-----5-----|--5b-2----2----2----2--|
--2--2----2----2----2--|----2----2--5--2--2-----|--2--2----2----2----2--|
-----------------------|---------0-----0-----0--|--------------------0--|
-----------------------|------------------------|-----------------------|


            G     C        A5
------------------------|-----------------------|------------------------|
------------------------|-----------------------|------------------------|
----2-------2-----5-----|--5b-2----2----2----2--|----2----------------2--|
----2-------5-----2-----|--2--2----2----2----2--|----2----2-----------2--|
----0----0-----0-----0--|---------------0-------|------------3h-0--5-----|
------------------------|-----------------------|------------------------|



-----------------------|-----------------------|-----------------------|
-----------------------|-----------------------|-----------------------|
-----2----2----2----2--|----2---------------2--|-----2-----------------|
--2--2----2----2----2--|----2----2----------2--|--2--2----2----2----2--|
--0-------0----0----0--|---------0--3----5-----|--0-------0----0----0--|
-----------------------|-----------------------|-----------------------|



-----------------------|-----------------------|------------------------|
-----------------------|-----------------------|------------------------|
-----------------------|-----2----2----2----2--|----2----2-----------2--|
---------2----------2--|--2--2----2----2----2--|----2----2-----------2--|
----0----0--3----5-----|--0-------0----0----0--|------------3h-0--5-----|
-----------------------|-----------------------|------------------------|



-----------------------|-------------------------|-----------------------|
-----------------------|-------------------------|-----------------------|
----------2----2----2--|----------2-----2--2-----|-----2---------2----2--|
--2--2----2----2----2--|----2--2--2-----------2--|--2--2----2----2----2--|
--0-----------------0--|----0--------3-----5-----|--0-------0------------|
-----------------------|-------------------------|-----------------------|



------------------------|-----------------------|------------------------|
------------------------|-----------------------|------------------------|
----2----2-----------2--|-----2---------2----2--|----2-------------------|
----2----2-----------2--|--2--2----2----2----2--|----2----2-----------2--|
----0-------3h-0--5-----|--0-------0------------|---------0--3h-0--5-----|
------------------------|-----------------------|------------------------|



-----------------------|------------------------|-----------------------|
-----------------------|------------------------|-----------------------|
-----2--------------2--|----2----2-----------2--|-----2----2----2----2--|
-----2----2----2----2--|----2----2-----------2--|--2--2----2----2----2--|
--0-------0----0----0--|----0-------3h-0--5-----|--0-------0------------|
-----------------------|------------------------|-----------------------|


Video Clip de Ala Granja


ACORDES PARA GUITARRA

PIANO UKELELE
A5
G
C


TOP 20: Las más tocadas de Isis


Toca una Canción al Azar de Isis

Acordes

Cerrar
A5
G
C

07.13

x

92