Espelho
Israel Novaes
Acordes

Subida por Ihce121



Otras Versiones
Ver. 2

Cambiar Cifrado
Americano Latino

Cambiar Tonalidad
-1 +1

Partir Pantalla Imprimir FAQ

+A
-A

LETRA Y ACORDES

Mudar para Português
Intro:  Bm G D A9

INTRO:
E|----------------------------------------------------------------------------|
B|-----14-14/19-18---14-14/19-18---12-12/16-14--12-11p12h11--9----------------|
G|----------------------------------------------------------------------------|
D|----------------------------------------------------------------------------|
A|----------------------------------------------------------------------------|
E|----------------------------------------------------------------------------|

Bm G
Um cheiro de amor no ar
Bm G D A9
Pra rolar deixa tudo acontecer
Bm G
Um simples jeito de olhar
Bm G D A9 G Em F#m
Diz coisas que eu queria dizer pra você
G A9 Em F#m
Eu queria dizer pra você
G A
Eu queria dizer

(refrão)

Bm G D A9
Eu te vejo no espelho no amanhecer
Bm G D A9
Sinto um cheiro e o perfume me lembra você
Bm G D A9
Eu te vejo no espelho no amanhecer
Bm G D A9
Sinto um cheiro e o perfume me lembra você
Em G Bm
Toda vez que fecho os olhos eu vejo você.

SOLO:
E|----------------------------------------------------------------------------|
B|-----14-14/19-18---14-14/19-18---12-12/16-14--12-11p12h11--9----------------|
G|----------------------------------------------------------------------------|
D|----------------------------------------------------------------------------|
A|----------------------------------------------------------------------------|
E|----------------------------------------------------------------------------|

E|-------------------14/16-14-----14-16-16b17r16--21-16-17-16/14-16-16b17r16--|
B|--14-14/19-18---14------------14--------------------------------------------|
G|----------------------------------------------------------------------------|
D|----------------------------------------------------------------------------|
A|----------------------------------------------------------------------------|
E|----------------------------------------------------------------------------|

ACORDES PARA GUITARRA

PIANO UKELELE
Bm
G
D
A9
Em
F#m
A



COMENTARIOS

Aún no hay comentarios,

¡escribe el primero!

Escribe un comentario o pregunta sobre esta canción


Toca una Canción al Azar de Israel Novaes
Más canciones de Israel Novaes

  • Fogo de Palha
  • Tem Que Ter Pegada
  • Chip
  • Aquele Fogo
  • A Moça Não Me Quer
  • Unica Paixão
  • Marrom Bombom
  • Tchaca
  • Lapada Lapada
  • Vida Mais Ou Menos
  • Sinal Disfarçado (part. Zé Ricardo e Thiago)
  • Sextou
  • Cheiro No Pescoço
  • Só Vem Me Abraçar
  • A Procura
  • Combinação Perfeita
  • Morena Poema
  • Nois Nao Para de Beber
  • Ô Sofrência
  • Selfie
  • Ver todas las canciones de Israel Novaes

    Bm
    G
    D
    A9
    Em
    F#m
    A

    Nuestro servidor se demoró 0.29 segundos en generar esta página. Que velocidad!