Tchaca
Israel Novaes
Acordes

Subida por KennethNeway



Otras Versiones
Ver. 2

Cambiar Cifrado
Americano Latino

Cambiar Tonalidad
-1 +1

Partir Pantalla Imprimir FAQ

+A
-A
Mudar para Português
LETRA CON ACORDES
Introdução:

E|-5-3------5-------------------|
B|-----5------------------------| repete 2 vezes
G|-------7----------------------|

solo inicio

E|------------------------------|
B|-------5----------------------| repete 8 vezes
G|-4-5-7------------------------|

E|------------------------------|
B|-------5----------------------| repete 6 vezes
G|-4-5-7------------------------|

E|------------------------------|
B|------------------------------|
G|-4-5-7-5-4--------------------|


G C
Quando ela começa a arrochar não consegue parar
G C
Quando ela começa a arrochar não consegue parar
G C G
Ai, ai, ai, novinha, assim mata o papai
C
Ai, ai, novinha

G C
quando ela começa a arrochar não consegue parar
G C
quando ela começa a arrochar não consegue parar
G C G
ai, ai, ai, novinha, assim mata o papai
C
ai, ai, novinha

G C
ela sobe, ela desce, ela mexe
G C
ela desce, ela sobe, ela mexe
G C
ela sobe, ela desce, ela mexe
G C
ela desce, ela sobe, ela mexe
F G
eu vou fazer com você assim ó


C G
direita, tchaca!
G C
esquerda, tchaca!
C G
no meio, tchaca, tchaca, tchaca, tchaca!
C G
direita, tchaca!
G C
esquerda, tchaca!
C G
no meio, tchaca, tchaca, tchaca, tchaca!

refrão



repete solo 1

repete do inicio

repete refrão

solo final


E|------------------------------|
B|-------5----------------------| repete 6 vezes
G|-4-5-7---7-5------------------|

ACORDES PARA GUITARRA

PIANO UKELELE
G
C
F



COMENTARIOS

Aún no hay comentarios,

¡escribe el primero!

Escribe un comentario o pregunta sobre esta canción


TOP 20: Las más tocadas de Israel Novaes

Ver más

Toca una Canción al Azar de Israel Novaes
G
C
F

Nuestro servidor se demoró 0.02 segundos en generar esta página. Eso fue realmente muy rápido!