Nada Mal
Israel Novaes
Acordes

Subida por Trovadicto
Mudar para Português
Intro: Am C G D/F#


Am C
E|-------------------------------3----------------------
B|---------------------------5-----3/5------------------
G|-------4-4h5---5/7-5---5-7---7------------------------
D|---5/7-------7---------------------------------------
A|-----------------------------------------------------
E|-----------------------------------------------------

G D/F#
E|-------------------------------3/5/3------------------|
B|----6/8-8-8--6-6-6-5-5-5-3-1-3-3/5/3------------------|
G|----7/9-9-9--7-7-7-5-5-5-4-2-4------------------------|
D|------------------------------------------------------|
A|------------------------------------------------------|
E|------------------------------------------------------|


Am C
Nada mal, pra quem tava chorando semana passada
G
Parece que você já tá recuperada
D/F#
Será que realmente sofreu tanto assim
Am C
E você tá bem acompanhada desse cara agora
G
E pelo que eu tô vendo não me quer de volta
D/F#
Será que realmente doeu tanto assim
Am
Eu sei?
G
Você ta com ele só pra me fazer ciúme
F
Se ama tanto ele por que não assume
G
Por que não beija ela na frente dos outros
Am G
Você ta com vergonha de mostrar pro povo, pro povo
C G
Você ta mesmo achando que eu sou idiota
Dm
Ta passando vergonha pra me ter de volta
F
Mais olha a minha cara de preocupação
G
To vivendo?
C G
Coitado desse cara que ta do seu lado
Dm
Não dou uma semana pra virar passado
F
E você vai correr atrás do seu futuro
G Am
E me implorar pra que eu esqueça tudo



Otras Versiones
Ver. 2

Cambiar Cifrado
Americano Latino

Cambiar Tonalidad
-1 +1

Partir Pantalla Imprimir FAQ

+A
-A

ACORDES PARA GUITARRA

PIANO UKELELE
Am
C
G
D/F#
F
Dm



COMENTARIOS

Aún no hay comentarios,

¡escribe el primero!

Escribe un comentario o pregunta sobre esta canción


TOP 20: Las más tocadas de Israel Novaes

Ver más

Toca una Canción al Azar de Israel Novaes
Am
C
G
D/F#
F
Dm

Nuestro servidor se demoró 0.03 segundos en generar esta página. Eso fue realmente muy rápido!