Selección de huayños
Jacha Mallku
Acordes

Subida por carlotronic


Más Versiones
Ver. 2 Ver. 3

Cambiar Cifrado
Americano Latino

Cambiar Tonalidad
-1 +1

Partir Pantalla Imprimir FAQ

+A
-A
E|-----------------------------|
B|-----------------------------|
G|-----------------------------|
D|-----------------------------|
A|--0--3--2--0--2--0-----------|
E|--------------------3--2--0--|

G - B7 - Em
Em C
Aguita rica de Puthina
Palomita
D G
Como quieres que me vaya ayayay
B7
sabiendo que yo te quiero
Em
Palomitay x2

D
Tu padre tu madre
no quieren ya
G B7
que no me case contigo
Em
palomiatay x2

E|-----------------------------|
B|-----------------------------|
G|-----------------------------|
D|-----------------------------|
A|--0--3--2--0--2--0-----------|
E|--------------------3--2--0--|
Cha-ra-saña-ni-ta-be-lla-flor
G B7 Em
Que yo me case contigo palomitay x2

ZAMPOÑAS

E|-----------------------------|
B|-----------------------------|
G|-----------------------------|
D|-----------------------------|
A|--0--3--2--0--2--0-----------|
E|--------------------3--2--0--|

Cambia de tono
Bm

E|-----------------------------|
B|-----------------------------|
G|-----0-----------------------|
D|--2-----4--2--4--2--0--------|
A|-----------------------4--2--|
E|-----------------------------|

Bm D
El dia que yo e vaya
F# Bm
no quiero que llores x2
A D
cuidado despues digas
F# Bm
que no te he querido x2

E|---------------------------|
B|---------------------------|
G|---------------------------|
D|--0--0--2--4--2--0---------|
A|--------------------2------|
E|---------------------------|
ay ay ay pa lo mi ta
F# Bm
que no te he querido
E|---------------------------|
B|---------------------------|
G|---------------------------|
D|--0--0--2--4--2--0---------|
A|--------------------2------|
E|---------------------------|
ay ay ay huay che ñi ta
F# Bm
que no te he querido

ZAMPOÑA

E|---------------------------|
B|---------------------------|
G|---------------------------|
D|--0--0--2--4--2--0---------|
A|--------------------2------|
E|---------------------------|

CAMBIA DE TONO A Em


E|---------------------------|
B|---------------------------|
G|---------------------------|
D|---------------------------|
A|--------0--2--0------------|
E|--3--3-----------3--0------|

B7 - Em
Em C
En esta noche silenciosa
D G
bengo a despedirme de tu lado
B7 Em
mañana ya me voy x2

D
No me importa el llanto
G B7 Em
de tus ojos por que ya no vuelvo x2

E|---------------------------|
B|---------------------------|
G|-----------0--2--0---------|
D|--2--2--4-----------2--0---|
A|---------------------------|
E|---------------------------|
Ay ay ay ay ay ay ay ay

D
No me importa el llanto
G B7 Em
de tus ojos por que ya no vuelvo x2


Termina con la Zampoña


ACORDES PARA GUITARRA

PIANO UKELELE
G
B7
Em
C
D
Bm
F#
A


COMENTARIOS

Aún no hay comentarios,

¡escribe el primero!

Escribe una pregunta, duda o comentario sobre esta canción, te responderemos a la brevedad.

Las más tocadas de Jacha Mallku

Toca una Canción al Azar de Jacha Mallku
G
B7
Em
C
D
Bm
F#
A