Selección de morenadas
Jacha Mallku
Acordes

Subida por Fernanda


Más Versiones
Ver. 2 Ver. 3

Cambiar Cifrado
Americano Latino

Cambiar Tonalidad
-1 +1

Partir Pantalla Imprimir FAQ

+A
-A
a) Cuanto cuestas, cuanto vales
b) Mi vida no vale nada
c) Hay que bailar moreno

Este es el punteo con la primera guitarra
La segunda guitarra entra con F y continúa
Con las notas de *

INTRO
*F
e -----------------------------------------------
B -----------------------------------1-----------
G -----------------------------0--2-----2--0-----
D --2--5--2--5--2--0-----0--2-----------------2--
A --------------------3--------------------------
E -----------------------------------------------

e --------------------------------------------------------------
B --------------------------------------------------------------
G --------------------------------------0-----------------------
D --2--5--2--5--2--0-----0--2-----0--2--------0--2--0-----------
A --------------------3--------3-----------3-----------3--2--0--
E --------------------------------------------------------------

a) * F - G - C - E7 - Am
Am - F - G - C - E7 - Am

Am E7 Am
Cuanto cuestas, cuanto vales
F G C
Amor mí____o
C E7 Am
Si tu quieres yo te pago
C E7 Am
Pero nunca, nunca me olvides

Am E7 Am
Cuanto cuestas, cuanto vales
F G C
Amor mí____o
C E7 Am
Si tu quieres yo te pago
C E7 Am
Pero nunca, nunca me olvides

Am
Como no voy a sufrir
F G C
Como no voy a llorar
C E7 Am
Palomita de mi vida
C E7 Am
Por ti... siempre llorando

Am
Como no voy a sufrir
F G C
Como no voy a llorar
C E7 Am
Palomita de mi vida
C E7 Am
Por ti... siempre llorando

Am - E7 - Am
F - G - C - E7 - Am - C - E7 - Am
Am - E7 - Am
F - G - C - E7 - Am - C - E7 - Am

Am - F - G - C - E7 - Am - C - E7 - Am


b) CAMBIA DE TONO A Bm

Bm - A - D - F#7 - Bm
Bm - A - D - F#7 - Bm

Bm D
Mi vida no vale nada
A D
Si tu no estas a mi lado
F#7 Bm
Amor mío

Bm D
Mi vida no vale nada
A D
Si tu no estas a mi lado
F#7 Bm
Amor mío

G D
Tu padre celoso
G D
Tu madre celosa
F#7 Bm
Te ande casar con otro

G D
Tu padre celoso
G D
Tu madre celosa
F#7 Bm
Te ande casar con otro

Bm - A - D - F#7 - Bm


c) CAMBIA DE TONO A Dm

Dm - Bb - Gm - Bb
C - F - A7 - Dm
Dm - Bb - Gm - Bb
C - F - A7 - Dm

Bb - Gm - Bb
C - F - A7 - Dm
Bb - Gm - Bb
C - F - A7 - Dm

Dm Bb
Hay que bailar moreno
Gm Bb
Al año una vez
C F A7 Dm
Aunque nos cueste plata

Dm Bb
Hay que bailar moreno
Gm Bb
Al año una vez
C F A7 Dm
Aunque nos cueste plata

Bb Gm Bb
Que cosas vamos a llevar
C F
Cuando nos vamos a morir
A7 Dm
Cholita paceña

Bb Gm Bb
Que cosas vamos a llevar
C F
Cuando nos vamos a morir
A7 Dm
Cholita paceña

Dm - C - F - C - F - A7 - Dm
Dm - C - F - C - F - A7 - Dm


ACORDES PARA GUITARRA

PIANO UKELELE
Am
F
G
C
E7
Bm
A
D
F#7
Dm
Bb
Gm
A7


COMENTARIOS

Aún no hay comentarios,

¡escribe el primero!

Escribe una pregunta, duda o comentario sobre esta canción, te responderemos a la brevedad.

Las más tocadas de Jacha Mallku

Toca una Canción al Azar de Jacha Mallku
Am
F
G
C
E7
Bm
A
D
F#7
Dm
Bb
Gm
A7