Hay Rosita
Jacha Mallku
Acordes

Subida por puerperina


Más Versiones
Ver. 2

Cambiar Cifrado
Americano Latino

Cambiar Tonalidad
-1 +1

Partir Pantalla Imprimir FAQ

+A
-A
Este tema es buenísimo y espero que les guste

INTRO
(Rosa de mi tierra...
Rosa de mis sueños)

Dm - A7 - Dm - A7 - Dm - A7 - Dm - A7 - Dm
Con la guitarra
e -------------------------------------------------------------------------
B -------------------------------------------------------------------------
G -------------------------------------------------------------------------
D -0---------------0-0-0---------------0-0-0---------------0---------------
A ---0-1-0-4-0-1-0-------0-1-0-4-0-1-0-------0-1-0-4-0-1-0---0-1-0-4-0-1-0-
E -------------------------------------------------------------------------

Con el charango
1 -----------------------0--------------
2 ---0---0---0---0-----------0---0---0--
3 -------------------------------------- repetir
4 -2-------1-------2-2-2-------1--------
5 -----3-------3-----------3-------3----

/Dm-A7-A7-Dm bis/

/D7-Gm-C-F-Dm-E-A7-Dm Bis/

Dm-A7-Dm-A7-Dm-A7-Dm-A7-Dm
De nuevo el intro del guitarra y el charango

Dm A7
Ay rosita flor de mi vida
Dm
dame tu corazón
Dm A7
el encanto de tu boquita
Dm
fuente de inspiración.

D7 Gm
//Sin ti yo viviré
C F
sin ti yo llorare
Dm E
eres razón de mi vida
A7 Dm
que nunca olvidare. (Bis)//

De nuevo el intro con la guitarra y el charango

Dm-A7-Dm-A7-Dm-A7-Dm-A7-Dm
Dm-A7-Dm-A7-Dm-A7-Dm-A7-Dm
Dm-A7-Dm-A7-Dm-A7-Dm-A7-Dm

SOLO DE GUITARRA

e ------------------------------ ---------------
B --------------------6-------5- -6/5---5/8/5---
G ------------------7---6---6--- -----7-------7- repetir esto dos o tres
D --------------5/7-------7----- --------------- veces
A -------5-7-8------------------ ---------------
E -5-6-8------------------------ ---------------

e ---------------8-8-8-5-6-5-6-5---5----------------------------
B -8/10--8-6-5-------------------8---8-6-8-5-6-5----------------
G -------------7---------------------------------7-5-7-4-7-5-7--
D --------------------------------------------------------------
A --------------------------------------------------------------
E --------------------------------------------------------------

e --------6-5---5-----------------------------------------------
B ------------8---8-6-8-6-5-6-5---5-----------------------------
G ------------------------------7---7-5-7-5---5---------5-7-5---
D -7/8--7-----------------------------------8---8-7-8-7---------
A --------------------------------------------------------------
E --------------------------------------------------------------

e ----------------------------------------------5--
B ------------------------------------------6-8----
G ------------------------------------5-6-7--------
D ---5----------------5-----5-----5-7--------------
A -8---8-7-8-7--5-7-8---7-8---5-8------------------
E -------------------------------------------------

e -10/9----9----9--
B ------11---10----
G ----------------- se repite dos
D ----------------- veces
A -----------------
E -----------------

e -10-9----------9-
B ------11-10-11---
G ----------------- se repite cuatro
D ----------------- veces
A -----------------
E -----------------

SOLO DE CHARANGO

1 -------0-----3---3--3-5-5-5-5-5--12-10-10--5-6-5-5-6-5-6-5--
2 ---3--------------------------------------------------------
3 ------------------------------------------------------------
4 -2---2---2-4---5--------------------------------------------
5 ------------------------------------------------------------

1 -3-1--3-1--1-1--3-1-3-1-------------0-1-3-5-5-6-5--12-10----
2 ------------------------------------------------------------
3 ------------------------------------------------------------
4 ------------------------------------------------------------
5 ------------------------(2-2-2-2)-2-------------------------

1 -5-6---0-1-3-5-5-6-5-6-5-- --6-5-0--
2 -------------------------- ---------
3 -------------------------- --------- se repite muchas veces
4 -------------------------- ---------
5 -----2-------------------- ---------

Luego viene el solo del bajo y la quena

Dm A7
Hay rosita flor de mi vida
Dm
dame tu corazón
Dm A7
el encanto de tu boquita
Dm
fuente de inspiración.

Dm Gm
//Sin ti no viviré
C F
sin ti yo llorare
Dm E
eres razón de mi vida
A7 Dm
que nunca olvidare. (Bis)//

/Dm-A7-A7-Dm Bis/

/D7-Gm-C-F-Dm-E-A7-Dm Bis/

Dm-A7-Dm-A7-Dm-A7-Dm-A7-Dm-A7-Dm-A7-Dm
Aquí va el intro de la guitarra y el charango

Y eso fue todo Gracias...

Esta cancion va para todos los fans de Jacha Mallku
cualquier duda o comentario escríbanme a mi correo
electrónico que es [email protected]


ACORDES PARA GUITARRA

PIANO UKELELE
Dm
A7
D7
Gm
C
F
E


COMENTARIOS

Aún no hay comentarios,

¡escribe el primero!

Escribe una pregunta, duda o comentario sobre esta canción, te responderemos a la brevedad.

Las más tocadas de Jacha Mallku

Toca una Canción al Azar de Jacha Mallku
Dm
A7
D7
Gm
C
F
E